  0
SECTION
  2
HEADER
  9
$ACADVER
  1
AC1015
  9
$ACADMAINTVER
 70
     6
  9
$DWGCODEPAGE
  3
ANSI_1252
  9
$INSBASE
 10
0.0
 20
0.0
 30
0.0
  9
$EXTMIN
 10
1.000000E+20
 20
1.000000E+20
 30
1.000000E+20
  9
$EXTMAX
 10
-1.000000E+20
 20
-1.000000E+20
 30
-1.000000E+20
  9
$LIMMIN
 10
0.0
 20
0.0
  9
$LIMMAX
 10
0.0
 20
0.0
  9
$ORTHOMODE
 70
     0
  9
$REGENMODE
 70
     1
  9
$FILLMODE
 70
     1
  9
$QTEXTMODE
 70
     0
  9
$MIRRTEXT
 70
     1
  9
$LTSCALE
 40
50.0
  9
$ATTMODE
 70
     1
  9
$TEXTSIZE
 40
0.2
  9
$TRACEWID
 40
0.05
  9
$TEXTSTYLE
  7
Standard
  9
$CLAYER
  8
0
  9
$CELTYPE
  6
Continuous
  9
$CECOLOR
 62
   256
  9
$CELTSCALE
 40
1.0
  9
$DISPSILH
 70
     0
  9
$DIMSCALE
 40
1.0
  9
$DIMASZ
 40
0.18
  9
$DIMEXO
 40
0.0625
  9
$DIMDLI
 40
0.38
  9
$DIMRND
 40
0.0
  9
$DIMDLE
 40
0.0
  9
$DIMEXE
 40
0.18
  9
$DIMTP
 40
0.0
  9
$DIMTM
 40
0.0
  9
$DIMTXT
 40
0.18
  9
$DIMCEN
 40
0.09
  9
$DIMTSZ
 40
0.0
  9
$DIMTOL
 70
     0
  9
$DIMLIM
 70
     0
  9
$DIMTIH
 70
     1
  9
$DIMTOH
 70
     1
  9
$DIMSE1
 70
     0
  9
$DIMSE2
 70
     0
  9
$DIMTAD
 70
     0
  9
$DIMZIN
 70
     0
  9
$DIMBLK
  1

  9
$DIMASO
 70
     1
  9
$DIMSHO
 70
     1
  9
$DIMPOST
  1

  9
$DIMAPOST
  1

  9
$DIMALT
 70
     0
  9
$DIMALTD
 70
     2
  9
$DIMALTF
 40
25.4
  9
$DIMLFAC
 40
1.0
  9
$DIMTOFL
 70
     0
  9
$DIMTVP
 40
0.0
  9
$DIMTIX
 70
     0
  9
$DIMSOXD
 70
     0
  9
$DIMSAH
 70
     0
  9
$DIMBLK1
  1

  9
$DIMBLK2
  1

  9
$DIMSTYLE
  2
Standard
  9
$DIMCLRD
 70
     0
  9
$DIMCLRE
 70
     0
  9
$DIMCLRT
 70
     0
  9
$DIMTFAC
 40
1.0
  9
$DIMGAP
 40
0.09
  9
$DIMJUST
 70
     0
  9
$DIMSD1
 70
     0
  9
$DIMSD2
 70
     0
  9
$DIMTOLJ
 70
     1
  9
$DIMTZIN
 70
     0
  9
$DIMALTZ
 70
     0
  9
$DIMALTTZ
 70
     0
  9
$DIMUPT
 70
     0
  9
$DIMDEC
 70
     4
  9
$DIMTDEC
 70
     4
  9
$DIMALTU
 70
     2
  9
$DIMALTTD
 70
     2
  9
$DIMTXSTY
  7
Standard
  9
$DIMAUNIT
 70
     0
  9
$DIMADEC
 70
     0
  9
$DIMALTRND
 40
0.0
  9
$DIMAZIN
 70
     0
  9
$DIMDSEP
 70
     0
  9
$DIMATFIT
 70
     3
  9
$DIMFRAC
 70
     0
  9
$DIMLDRBLK
  1

  9
$DIMLUNIT
 70
     2
  9
$DIMLWD
 70
     0
  9
$DIMLWE
 70
     0
  9
$DIMTMOVE
 70
     0
  9
$LUNITS
 70
     2
  9
$LUPREC
 70
     4
  9
$SKETCHINC
 40
0.1
  9
$FILLETRAD
 40
0.0
  9
$AUNITS
 70
     0
  9
$AUPREC
 70
     0
  9
$MENU
  1
acad
  9
$ELEVATION
 40
0.0
  9
$PELEVATION
 40
0.0
  9
$THICKNESS
 40
0.0
  9
$LIMCHECK
 70
     0
  9
$CHAMFERA
 40
0.0
  9
$CHAMFERB
 40
0.0
  9
$CHAMFERC
 40
0.0
  9
$CHAMFERD
 40
0.0
  9
$SKPOLY
 70
     0
  9
$TDCREATE
 40
0.000000000
  9
$TDUCREATE
 40
0.000000000
  9
$TDUPDATE
 40
0.000000000
  9
$TDUUPDATE
 40
0.000000000
  9
$TDINDWG
 40
0.0000000000
  9
$TDUSRTIMER
 40
0.0000000000
  9
$USRTIMER
 70
     1
  9
$ANGBASE
 50
0.0
  9
$ANGDIR
 70
     0
  9
$PDMODE
 70
     0
  9
$PDSIZE
 40
0.0
  9
$PLINEWID
 40
0.0
  9
$SPLFRAME
 70
     0
  9
$SPLINETYPE
 70
     6
  9
$SPLINESEGS
 70
   120
  9
$HANDSEED
  5
AC
  9
$SURFTAB1
 70
     6
  9
$SURFTAB2
 70
     6
  9
$SURFTYPE
 70
     6
  9
$SURFU
 70
     6
  9
$SURFV
 70
     6
  9
$UCSBASE
  2

  9
$UCSNAME
  2

  9
$UCSORG
 10
0.0
 20
0.0
 30
0.0
  9
$UCSXDIR
 10
1.0
 20
0.0
 30
0.0
  9
$UCSYDIR
 10
0.0
 20
1.0
 30
0.0
  9
$UCSORTHOREF
  2

  9
$UCSORTHOVIEW
 70
     0
  9
$UCSORGTOP
 10
0.0
 20
0.0
 30
0.0
  9
$UCSORGBOTTOM
 10
0.0
 20
0.0
 30
0.0
  9
$UCSORGLEFT
 10
0.0
 20
0.0
 30
0.0
  9
$UCSORGRIGHT
 10
0.0
 20
0.0
 30
0.0
  9
$UCSORGFRONT
 10
0.0
 20
0.0
 30
0.0
  9
$UCSORGBACK
 10
0.0
 20
0.0
 30
0.0
  9
$PUCSBASE
  2

  9
$PUCSNAME
  2

  9
$PUCSORG
 10
0.0
 20
0.0
 30
0.0
  9
$PUCSXDIR
 10
1.0
 20
0.0
 30
0.0
  9
$PUCSYDIR
 10
0.0
 20
1.0
 30
0.0
  9
$PUCSORTHOREF
  2

  9
$PUCSORTHOVIEW
 70
     0
  9
$PUCSORGTOP
 10
0.0
 20
0.0
 30
0.0
  9
$PUCSORGBOTTOM
 10
0.0
 20
0.0
 30
0.0
  9
$PUCSORGLEFT
 10
0.0
 20
0.0
 30
0.0
  9
$PUCSORGRIGHT
 10
0.0
 20
0.0
 30
0.0
  9
$PUCSORGFRONT
 10
0.0
 20
0.0
 30
0.0
  9
$PUCSORGBACK
 10
0.0
 20
0.0
 30
0.0
  9
$USERI1
 70
 12345
  9
$USERI2
 70
     0
  9
$USERI3
 70
     0
  9
$USERI4
 70
     0
  9
$USERI5
 70
     0
  9
$USERR1
 40
0.0
  9
$USERR2
 40
0.0
  9
$USERR3
 40
0.0
  9
$USERR4
 40
0.0
  9
$USERR5
 40
0.0
  9
$WORLDVIEW
 70
     1
  9
$SHADEDGE
 70
     3
  9
$SHADEDIF
 70
    70
  9
$TILEMODE
 70
     1
  9
$MAXACTVP
 70
    16
  9
$PINSBASE
 10
0.0
 20
0.0
 30
0.0
  9
$PLIMCHECK
 70
     0
  9
$PEXTMIN
 10
1.000000E+20
 20
1.000000E+20
 30
1.000000E+20
  9
$PEXTMAX
 10
-1.000000E+20
 20
-1.000000E+20
 30
-1.000000E+20
  9
$PLIMMIN
 10
0.0
 20
0.0
  9
$PLIMMAX
 10
12.0
 20
9.0
  9
$UNITMODE
 70
     0
  9
$VISRETAIN
 70
     0
  9
$PLINEGEN
 70
     1
  9
$PSLTSCALE
 70
     0
  9
$TREEDEPTH
 70
  3020
  9
$CMLSTYLE
  2
Standard
  9
$CMLJUST
 70
     0
  9
$CMLSCALE
 40
1.0
  9
$PROXYGRAPHICS
 70
     0
  9
$MEASUREMENT
 70
     0
  9
$CELWEIGHT
370
     0
  9
$ENDCAPS
280
     0
  9
$JOINSTYLE
280
     0
  9
$LWDISPLAY
290
     0
  9
$INSUNITS
 70
     0
  9
$HYPERLINKBASE
  1

  9
$STYLESHEET
  1

  9
$XEDIT
290
     1
  9
$CEPSNTYPE
380
     0
  9
$PSTYLEMODE
290
     1
  9
$FINGERPRINTGUID
  2

  9
$VERSIONGUID
  2

  9
$EXTNAMES
290
     1
  9
$PSVPSCALE
 40
0.0
  0
ENDSEC
  0
SECTION
  2
CLASSES
  0
CLASS
  1
LWPOLYLINE
  2
AcDbPolyline
  3
AutoCAD 2000
 90
        0
280
     0
281
     1
  0
CLASS
  1
IMAGE
  2
AcDbRasterImage
  3
ISM
 90
      127
280
     0
281
     1
  0
CLASS
  1
OLE2FRAME
  2
AcDbOle2Frame
  3
AutoCAD 2000
 90
        0
280
     0
281
     1
  0
CLASS
  1
HATCH
  2
AcDbHatch
  3
AutoCAD 2000
 90
        0
280
     0
281
     1
  0
CLASS
  1
DICTIONARYVAR
  2
AcDbDictionaryVar
  3
AutoCAD 2000
 90
        0
280
     0
281
     0
  0
CLASS
  1
RASTERVARIABLES
  2
AcDbRasterVariables
  3
ISM
 90
        0
280
     0
281
     0
  0
CLASS
  1
IMAGEDEF
  2
AcDbRasterImageDef
  3
ISM
 90
        0
280
     0
281
     0
  0
CLASS
  1
IMAGEDEF_REACTOR
  2
AcDbRasterImageDefReactor
  3
ISM
 90
        1
280
     0
281
     0
  0
CLASS
  1
IDBUFFER
  2
AcDbIdBuffer
  3
AutoCAD 2000
 90
        0
280
     0
281
     0
  0
CLASS
  1
SPATIAL_FILTER
  2
AcDbSpatialFilter
  3
AutoCAD 2000
 90
        0
280
     0
281
     0
  0
CLASS
  1
XRECORD
  2
AcDbXrecord
  3
AutoCAD 2000
 90
        0
280
     0
281
     0
  0
CLASS
  1
SORTENTSTABLE
  2
AcDbSortentsTable
  3
AutoCAD 2000
 90
        0
280
     0
281
     0
  0
CLASS
  1
LAYER_INDEX
  2
AcDbLayerIndex
  3
AutoCAD 2000
 90
        0
280
     0
281
     0
  0
CLASS
  1
SPATIAL_INDEX
  2
AcDbSpatialIndex
  3
AutoCAD 2000
 90
        0
280
     0
281
     0
  0
CLASS
  1
OBJECT_PTR
  2
CAseDLPNTableRecord
  3
"ASE-LPNTableRecord"
 90
        1
280
     0
281
     0
  0
CLASS
  1
LAYOUT
  2
AcDbLayout
  3
AutoCAD 2000
 90
        0
280
     0
281
     0
  0
CLASS
  1
PLOTSETTINGS
  2
AcDbPlotSettings
  3
AutoCAD 2000
 90
        0
280
     0
281
     0
  0
CLASS
  1
ACDBDICTIONARYWDFLT
  2
AcDbDictionaryWithDefault
  3
AutoCAD 2000
 90
        0
280
     0
281
     0
  0
CLASS
  1
ACDBPLACEHOLDER
  2
AcDbPlaceHolder
  3
AutoCAD 2000
 90
        0
280
     0
281
     0
  0
CLASS
  1
VBA_PROJECT
  2
AcDbVbaProject
  3
acadvba
 90
        0
280
     0
281
     0
  0
CLASS
  1
WIPEOUT
  2
AcDbWipeout
  3
WipeOut|AutoCAD Express Tool|expresstools@autodesk.com
 90
      127
280
     0
281
     1
  0
CLASS
  1
WIPEOUTVARIABLES
  2
AcDbWipeoutVariables
  3
WipeOut|AutoCAD Express Tool|expresstools@autodesk.com
 90
        0
280
     0
281
     0
  0
CLASS
  1
RTEXT
  2
RText
  3
RText|AutoCAD Express Tool|expresstools@autodesk.com
 90
        0
280
     0
281
     1
  0
CLASS
  1
ARCALIGNEDTEXT
  2
AcDbArcAlignedText
  3
ATEXT|AutoCAD Express Tool|expresstools@autodesk.com
 90
        0
280
     0
281
     1
  0
ENDSEC
  0
SECTION
  2
TABLES
  0
TABLE
  2
VPORT
  5
7
100
AcDbSymbolTable
 70
     1
  0
VPORT
  5
15
100
AcDbSymbolTableRecord
100
AcDbViewportTableRecord
  2
*ACTIVE
 70
     0
 10
0.0
 20
0.0
 11
1.0
 21
1.0
 12
414.0
 22
-356.0
 13
0.0
 23
0.0
 14
1.0
 24
1.0
 15
0.0
 25
0.0
 16
0.0
 26
0.0
 36
1.0
 17
0.0
 27
0.0
 37
0.0
 40
2892.0
 41
0.688564
 42
50.0
 43
0.0
 44
0.0
 50
0.0
 51
0.0
 71
     0
 72
   100
 73
     1
 74
     1
 75
     0
 76
     0
 77
     0
 78
     0
281
     0
 65
     0
110
0.0
120
0.0
130
0.0
111
1.0
121
0.0
131
0.0
112
0.0
122
1.0
132
0.0
345
0
346
0
 79
     0
146
0.0
  0
ENDTAB
  0
TABLE
  2
LTYPE
  5
4
100
AcDbSymbolTable
 70
     7
  0
LTYPE
  5
11
100
AcDbSymbolTableRecord
100
AcDbLinetypeTableRecord
  2
ByBlock
 70
    64
  3

 72
    65
 73
     0
 40
0.0
  0
LTYPE
  5
12
100
AcDbSymbolTableRecord
100
AcDbLinetypeTableRecord
  2
ByLayer
 70
    64
  3

 72
    65
 73
     0
 40
0.0
  0
LTYPE
  5
13
100
AcDbSymbolTableRecord
100
AcDbLinetypeTableRecord
  2
Continuous
 70
    64
  3
Solid line
 72
    65
 73
     0
 40
0.0
  0
LTYPE
  5
24
100
AcDbSymbolTableRecord
100
AcDbLinetypeTableRecord
  2
DASHED
 70
    64
  3
Dashed __ __ __
 72
    65
 73
     2
 40
0.75
 49
0.5
 74
     0
 49
-0.25
 74
     0
  0
LTYPE
  5
25
100
AcDbSymbolTableRecord
100
AcDbLinetypeTableRecord
  2
DOT
 70
    64
  3
Dot . . . .
 72
    65
 73
     2
 40
0.25
 49
0.0
 74
     0
 49
-0.25
 74
     0
  0
LTYPE
  5
26
100
AcDbSymbolTableRecord
100
AcDbLinetypeTableRecord
  2
DASHDOT
 70
    64
  3
Dash dot __ . __ .
 72
    65
 73
     4
 40
1.0
 49
0.5
 74
     0
 49
-0.25
 74
     0
 49
0.0
 74
     0
 49
-0.25
 74
     0
  0
LTYPE
  5
27
100
AcDbSymbolTableRecord
100
AcDbLinetypeTableRecord
  2
DIVIDE
 70
    64
  3
Divide __ . . __ . .
 72
    65
 73
     6
 40
1.25
 49
0.5
 74
     0
 49
-0.25
 74
     0
 49
0.0
 74
     0
 49
-0.25
 74
     0
 49
0.0
 74
     0
 49
-0.25
 74
     0
  0
ENDTAB
  0
TABLE
  2
LAYER
  5
2
100
AcDbSymbolTable
 70
     3
  0
LAYER
  5
14
100
AcDbSymbolTableRecord
100
AcDbLayerTableRecord
  2
0
 70
     0
 62
     7
  6
Continuous
290
     1
370
    -3
390
1D
  0
LAYER
  5
29
100
AcDbSymbolTableRecord
100
AcDbLayerTableRecord
  2
LAYER01
 70
     0
 62
     7
  6
Continuous
290
     1
370
    -3
390
1D
  0
LAYER
  5
2B
100
AcDbSymbolTableRecord
100
AcDbLayerTableRecord
  2
LAYER22
 70
     0
 62
     7
  6
Continuous
290
     1
370
    -3
390
1D
  0
ENDTAB
  0
TABLE
  2
STYLE
  5
3
100
AcDbSymbolTable
 70
     1
  0
STYLE
  5
17
100
AcDbSymbolTableRecord
100
AcDbTextStyleTableRecord
  2
Standard
 70
     0
 40
0.0
 41
1.0
 50
0.0
 71
     0
 42
0.0
  3
txt
  4

  0
ENDTAB
  0
TABLE
  2
VIEW
  5
5
100
AcDbSymbolTable
 70
     0
  0
ENDTAB
  0
TABLE
  2
UCS
  5
6
100
AcDbSymbolTable
 70
     0
  0
ENDTAB
  0
TABLE
  2
APPID
  5
8
100
AcDbSymbolTable
 70
     1
  0
APPID
  5
16
100
AcDbSymbolTableRecord
100
AcDbRegAppTableRecord
  2
ACAD
 70
     0
  0
ENDTAB
  0
TABLE
  2
DIMSTYLE
  5
9
100
AcDbSymbolTable
 70
     1
100
AcDbDimStyleTable
 71
     0
  0
DIMSTYLE
105
18
100
AcDbSymbolTableRecord
100
AcDbDimStyleTableRecord
  2
Standard
 70
     0
  3

  4

 40
1.0
 41
0.18
 42
0.0625
 43
0.38
 44
0.18
 45
0.0
 46
0.0
 47
0.0
 48
0.0
 71
     0
 72
     0
 73
     1
 74
     1
 75
     0
 76
     0
 77
     0
 78
     0
 79
     0
140
0.18
141
0.09
142
0.0
143
25.4
144
1.0
145
0.0
146
1.0
147
0.09
148
0.0
170
     0
171
     2
172
     0
173
     0
174
     0
175
     0
176
     0
177
     0
178
     0
179
     0
271
     4
272
     4
273
     2
274
     2
275
     0
276
     0
277
     2
278
    46
279
     0
280
     0
281
     0
282
     0
283
     1
284
     0
285
     0
286
     0
288
     0
289
     3
340
17
341
0
342
0
343
0
344
0
371
    -2
372
    -2
  0
ENDTAB
  0
TABLE
  2
BLOCK_RECORD
  5
1
100
AcDbSymbolTable
 70
     0
  0
BLOCK_RECORD
  5
A
100
AcDbSymbolTableRecord
100
AcDbBlockTableRecord
  2
*MODEL_SPACE
340
20
  0
BLOCK_RECORD
  5
B
100
AcDbSymbolTableRecord
100
AcDbBlockTableRecord
  2
*PAPER_SPACE
340
21
  0
ENDTAB
  0
ENDSEC
  0
SECTION
  2
BLOCKS
  0
BLOCK
  5
D
100
AcDbEntity
  8
0
390
0
100
AcDbBlockBegin
  2
*MODEL_SPACE
 70
     0
 10
0.0
 20
0.0
 30
0.0
  3
*MODEL_SPACE
  1

  0
ENDBLK
  5
E
100
AcDbEntity
  8
0
390
0
100
AcDbBlockEnd
  0
BLOCK
  5
F
100
AcDbEntity
 67
     1
  8
0
390
0
100
AcDbBlockBegin
  2
*PAPER_SPACE
 70
     0
 10
0.0
 20
0.0
 30
0.0
  3
*PAPER_SPACE
  1

  0
ENDBLK
  5
10
100
AcDbEntity
 67
     1
  8
0
390
0
100
AcDbBlockEnd
  0
ENDSEC
  0
SECTION
  2
ENTITIES
  0
MTEXT
  5
28
100
AcDbEntity
  8
LAYER01
390
0
 62
     2
100
AcDbMText
 10
-328.617188
 20
1026.21875
 30
0.0
 40
11.25
 41
0.0
 71
     7
 72
     1
  1
UNO 8
 11
1.0
 21
0.0
 31
0.0
 73
     1
 44
1.333333
  0
LWPOLYLINE
  5
2A
100
AcDbEntity
  8
LAYER22
370
    13
390
0
  6
Continuous
 62
     5
100
AcDbPolyline
 90
        2
 70
     0
 10
-255.617188
 20
799.21875
 10
-55.617188
 20
799.21875
  0
LWPOLYLINE
  5
2C
100
AcDbEntity
  8
LAYER22
370
    18
390
0
  6
Continuous
 62
     1
100
AcDbPolyline
 90
        2
 70
     0
 10
-255.617218
 20
801.71875
 10
-255.617218
 20
791.71875
  0
LWPOLYLINE
  5
2D
100
AcDbEntity
  8
LAYER22
370
    18
390
0
  6
Continuous
 62
     1
100
AcDbPolyline
 90
        2
 70
     0
 10
-55.617222
 20
801.71875
 10
-55.617222
 20
791.71875
  0
MTEXT
  5
2E
100
AcDbEntity
  8
LAYER22
390
0
 62
     2
100
AcDbMText
 10
-155.617188
 20
803.385437
 30
0.0
 40
11.25
 41
0.0
 71
     8
 72
     1
  1
200
 11
1.0
 21
0.0
 31
0.0
 73
     1
 44
1.333333
  0
LWPOLYLINE
  5
2F
100
AcDbEntity
  8
LAYER22
370
    18
390
0
  6
Continuous
 62
     1
100
AcDbPolyline
 90
        4
 70
     1
 10
-255.617188
 20
-1721.78125
 10
-255.617188
 20
906.21875
 10
-55.617188
 20
906.21875
 10
-55.617188
 20
-1721.78125
  0
LWPOLYLINE
  5
30
100
AcDbEntity
  8
LAYER22
370
    18
390
0
  6
Continuous
 62
     1
100
AcDbPolyline
 90
        4
 70
     1
 10
-55.617188
 20
-1721.78125
 10
-55.617188
 20
906.21875
 10
-25.617188
 20
906.21875
 10
-25.617188
 20
-1721.78125
  0
LWPOLYLINE
  5
31
100
AcDbEntity
  8
LAYER22
370
    25
390
0
  6
Continuous
 62
     2
100
AcDbPolyline
 90
       23
 70
     0
 10
-155.617188
 20
958.21875
 10
-146.279785
 20
958.218262
 10
-146.279785
 20
956.603516
 10
-136.689941
 20
956.603516
 42
-0.414214
 10
-135.074707
 20
954.988281
 10
-135.074707
 20
932.275391
 10
-134.34082
 20
928.114258
 42
-0.466313
 10
-135.931641
 20
926.218689
 10
-146.633301
 20
926.21875
 42
-0.469821
 10
-148.220642
 20
928.132874
 10
-147.44043
 20
932.275391
 10
-146.431152
 20
932.275391
 10
-146.431152
 20
928.944336
 10
-145.724609
 20
928.237793
 10
-140.172363
 20
928.237793
 10
-139.46582
 20
928.944336
 10
-139.46582
 20
932.275391
 10
-137.09375
 20
932.275391
 10
-137.09375
 20
951.556152
 42
0.414214
 10
-140.12207
 20
954.584473
 10
-149.207031
 20
954.584473
 10
-149.207031
 20
956.098633
 10
-155.617188
 20
956.098633
  0
LWPOLYLINE
  5
32
100
AcDbEntity
  8
LAYER22
370
    25
390
0
  6
Continuous
 62
     2
100
AcDbPolyline
 90
       23
 70
     0
 10
-155.617188
 20
958.21875
 10
-164.95459
 20
958.218262
 10
-164.95459
 20
956.603516
 10
-174.544434
 20
956.603516
 42
0.414214
 10
-176.159668
 20
954.988281
 10
-176.159668
 20
932.275391
 10
-176.893555
 20
928.114258
 42
0.466313
 10
-175.302734
 20
926.218689
 10
-164.601074
 20
926.21875
 42
0.469821
 10
-163.013733
 20
928.132874
 10
-163.793945
 20
932.275391
 10
-164.803223
 20
932.275391
 10
-164.803223
 20
928.944336
 10
-165.509766
 20
928.237793
 10
-171.062012
 20
928.237793
 10
-171.768555
 20
928.944336
 10
-171.768555
 20
932.275391
 10
-174.140625
 20
932.275391
 10
-174.140625
 20
951.556152
 42
-0.414214
 10
-171.112305
 20
954.584473
 10
-162.027344
 20
954.584473
 10
-162.027344
 20
956.098633
 10
-155.617188
 20
956.098633
  0
LWPOLYLINE
  5
33
100
AcDbEntity
  8
LAYER22
370
    18
390
0
  6
Continuous
 62
     1
100
AcDbPolyline
 90
        6
 70
     1
 10
-150.618164
 20
956.098633
 10
-160.616211
 20
956.098633
 10
-157.65918
 20
959.098633
 10
-157.65918
 20
969.098633
 10
-153.65918
 20
969.098633
 10
-153.65918
 20
959.098633
  0
LWPOLYLINE
  5
34
100
AcDbEntity
  8
LAYER22
370
    18
390
0
  6
Continuous
 62
     1
100
AcDbPolyline
 90
        2
 70
     0
 10
-157.65918
 20
959.098633
 10
-153.65918
 20
959.098633
  0
LWPOLYLINE
  5
35
100
AcDbEntity
  8
LAYER22
370
    18
390
0
  6
Continuous
 62
     1
100
AcDbPolyline
 90
       22
 70
     0
 10
-157.65918
 20
969.098633
 10
-153.809082
 20
971.348633
 10
-157.366455
 20
973.489258
 10
-154.104492
 20
975.779053
 10
-157.050293
 20
978.230957
 10
-154.421143
 20
980.529785
 10
-156.742188
 20
982.853516
 10
-154.724365
 20
985.079102
 10
-156.457275
 20
987.123779
 10
-154.982666
 20
988.950928
 10
-156.227295
 20
990.574707
 10
-155.165283
 20
991.692627
 10
-156.080566
 20
992.776123
 10
-155.307373
 20
993.820801
 10
-155.946533
 20
994.788818
 10
-155.421143
 20
995.530518
 10
-155.838135
 20
996.411133
 10
-155.516602
 20
996.962158
 10
-155.776611
 20
997.335205
 10
-155.578369
 20
997.88623
 10
-155.715088
 20
998.257813
 10
-155.617188
 20
999.088867
  0
LWPOLYLINE
  5
36
100
AcDbEntity
  8
LAYER22
370
    18
390
0
  6
Continuous
 62
     1
100
AcDbPolyline
 90
        4
 70
     1
 10
-171.313965
 20
952.464844
 10
-165.257324
 20
952.464844
 10
-165.257324
 20
928.237793
 10
-171.313965
 20
928.237793
  0
LWPOLYLINE
  5
37
100
AcDbEntity
  8
LAYER22
370
    18
390
0
  6
Continuous
 62
     1
100
AcDbPolyline
 90
        4
 70
     1
 10
-165.257324
 20
946.912598
 10
-145.976563
 20
946.912598
 10
-145.976563
 20
933.789551
 10
-165.257324
 20
933.789551
  0
LWPOLYLINE
  5
38
100
AcDbEntity
  8
LAYER22
370
    18
390
0
  6
Continuous
 62
     1
100
AcDbPolyline
 90
        4
 70
     1
 10
-145.976563
 20
952.464844
 10
-139.919922
 20
952.464844
 10
-139.919922
 20
928.237793
 10
-145.976563
 20
928.237793
  0
LWPOLYLINE
  5
39
100
AcDbEntity
  8
LAYER22
370
    18
390
0
  6
Continuous
 62
     1
100
AcDbPolyline
 90
        4
 70
     1
 10
-150.569824
 20
933.789551
 10
-150.569824
 20
906.21875
 10
-160.664551
 20
906.21875
 10
-160.664551
 20
933.789551
  0
LWPOLYLINE
  5
3A
100
AcDbEntity
  8
LAYER22
370
    25
390
0
  6
Continuous
 62
     2
100
AcDbPolyline
 90
        4
 70
     1
 10
-133.617188
 20
926.21875
 10
-133.617188
 20
958.21875
 10
-33.617188
 20
958.21875
 10
-33.617188
 20
926.21875
  0
LWPOLYLINE
  5
3B
100
AcDbEntity
  8
LAYER22
370
    25
390
0
  6
Continuous
 62
     2
100
AcDbPolyline
 90
        4
 70
     1
 10
-277.617188
 20
926.21875
 10
-277.617188
 20
958.21875
 10
-177.617188
 20
958.21875
 10
-177.617188
 20
926.21875
  0
LWPOLYLINE
  5
3C
100
AcDbEntity
  8
LAYER22
370
    18
390
0
  6
Continuous
 62
     1
100
AcDbPolyline
 90
        4
 70
     1
 10
-285.617188
 20
-1721.78125
 10
-285.617188
 20
906.21875
 10
-255.617188
 20
906.21875
 10
-255.617188
 20
-1721.78125
  0
LWPOLYLINE
  5
3D
100
AcDbEntity
  8
LAYER22
370
    13
390
0
  6
DASHDOT
 62
     5
100
AcDbPolyline
 90
        2
 70
     0
 10
-155.617188
 20
958.21875
 10
-155.617188
 20
-1721.78125
  0
LWPOLYLINE
  5
3E
100
AcDbEntity
  8
LAYER22
370
    25
390
0
  6
Continuous
 62
     2
100
AcDbPolyline
 90
       16
 70
     1
 10
387.300385
 20
619.686279
 10
560.503601
 20
719.689514
 10
563.003662
 20
715.359375
 10
556.941589
 20
711.859314
 10
556.396179
 20
712.803955
 42
1.0
 10
558.471924
 20
709.208801
 10
557.941589
 20
710.127258
 10
564.003723
 20
713.62738
 10
566.503784
 20
709.297302
 10
393.300598
 20
609.294067
 10
390.800507
 20
613.624146
 10
396.800049
 20
617.088135
 10
397.330322
 20
616.169678
 42
1.035421
 10
395.254578
 20
619.764832
 10
395.800018
 20
618.820129
 10
389.800476
 20
615.356201
  0
LWPOLYLINE
  5
3F
100
AcDbEntity
  8
LAYER22
370
    25
390
0
  6
Continuous
 62
     2
100
AcDbPolyline
 90
       22
 70
     0
 10
574.566528
 20
717.536255
 10
569.742798
 20
717.536194
 10
557.682861
 20
710.573547
 10
558.463135
 20
709.221863
 42
-1.0
 10
556.402466
 20
712.79126
 10
557.182861
 20
711.439514
 10
566.430786
 20
716.778564
 10
560.18811
 20
719.161133
 10
560.544006
 20
720.095215
 10
567.546997
 20
717.423096
 10
569.109009
 20
718.324951
 10
569.175354
 20
722.217529
 10
567.090393
 20
723.632507
 10
567.09082
 20
725.58551
 10
567.587402
 20
726.08551
 10
574.566406
 20
726.085449
 10
574.566406
 20
725.08551
 10
568.09082
 20
725.085571
 10
568.056641
 20
724.093994
 10
570.108948
 20
722.467407
 10
570.109009
 20
718.536255
 10
574.566528
 20
718.536194
  0
LWPOLYLINE
  5
40
100
AcDbEntity
  8
LAYER22
370
    25
390
0
  6
Continuous
 62
     2
100
AcDbPolyline
 90
       22
 70
     0
 10
574.566528
 20
717.536255
 10
579.390259
 20
717.536377
 10
591.450439
 20
710.574463
 10
590.670166
 20
709.222717
 42
1.0
 10
592.731079
 20
712.792114
 10
591.950439
 20
711.440308
 10
582.702759
 20
716.778992
 10
588.944946
 20
719.161743
 10
588.58844
 20
720.095886
 10
581.586548
 20
717.423523
 10
580.024048
 20
718.325073
 10
579.957092
 20
722.217712
 10
582.042053
 20
723.632874
 10
582.041992
 20
725.585815
 10
581.544922
 20
726.085754
 10
574.566406
 20
726.085449
 10
574.566406
 20
725.08551
 10
581.041992
 20
725.085999
 10
581.076172
 20
724.09436
 10
579.023987
 20
722.467773
 10
579.024048
 20
718.536438
 10
574.566528
 20
718.536194
  0
LWPOLYLINE
  5
41
100
AcDbEntity
  8
LAYER22
370
    25
390
0
  6
Continuous
 62
     2
100
AcDbPolyline
 90
       22
 70
     0
 10
379.220581
 20
611.473511
 10
384.044312
 20
611.473572
 10
396.104248
 20
618.436218
 10
395.323975
 20
619.787903
 42
-1.0
 10
397.384613
 20
616.218506
 10
396.604279
 20
617.570251
 10
387.356293
 20
612.231201
 10
393.59903
 20
609.848633
 10
393.243073
 20
608.914551
 10
386.240112
 20
611.58667
 10
384.678101
 20
610.684814
 10
384.611755
 20
606.792236
 10
386.696747
 20
605.377258
 10
386.696289
 20
603.424255
 10
386.199707
 20
602.924255
 10
379.220703
 20
602.924316
 10
379.220703
 20
603.924255
 10
385.696289
 20
603.924194
 10
385.730438
 20
604.915771
 10
383.678162
 20
606.542358
 10
383.678101
 20
610.473511
 10
379.220581
 20
610.473572
  0
LWPOLYLINE
  5
42
100
AcDbEntity
  8
LAYER22
370
    25
390
0
  6
Continuous
 62
     2
100
AcDbPolyline
 90
       22
 70
     0
 10
379.220581
 20
611.473511
 10
374.396851
 20
611.473389
 10
362.33667
 20
618.435303
 10
363.116943
 20
619.787048
 42
1.0
 10
361.05603
 20
616.217651
 10
361.8367
 20
617.569458
 10
371.08432
 20
612.230774
 10
364.842194
 20
609.848022
 10
365.198639
 20
608.913879
 10
372.200562
 20
611.586243
 10
373.763062
 20
610.684692
 10
373.830017
 20
606.792053
 10
371.745087
 20
605.376892
 10
371.745117
 20
603.42395
 10
372.242188
 20
602.924011
 10
379.220703
 20
602.924316
 10
379.220703
 20
603.924255
 10
372.745117
 20
603.923767
 10
372.710907
 20
604.915405
 10
374.763123
 20
606.541992
 10
374.763062
 20
610.473328
 10
379.220581
 20
610.473572
  0
LWPOLYLINE
  5
43
100
AcDbEntity
  8
LAYER22
370
    25
390
0
  6
Continuous
 62
     2
100
AcDbPolyline
 90
       11
 70
     0
 10
277.831055
 20
665.987305
 10
283.539063
 20
663.970459
 10
293.915039
 20
657.921753
 10
294.694336
 20
659.273438
 42
-0.99997
 10
292.633881
 20
655.703796
 10
293.415039
 20
657.055786
 10
284.166992
 20
662.394531
 10
285.225586
 20
655.797363
 10
284.237305
 20
655.638916
 10
283.050781
 20
663.038818
 10
277.462891
 20
665.057251
  0
LWPOLYLINE
  5
44
100
AcDbEntity
  8
LAYER22
370
    25
390
0
  6
Continuous
 62
     2
100
AcDbPolyline
 90
       11
 70
     0
 10
277.831055
 20
665.987305
 10
273.493164
 20
667.326172
 10
273.493164
 20
678.5
 10
275.053711
 20
678.500122
 42
1.0
 10
270.932617
 20
678.500366
 10
272.493164
 20
678.500122
 10
272.493164
 20
667.822144
 10
267.307617
 20
672.036865
 10
266.676758
 20
671.261108
 10
272.493164
 20
666.533203
 10
277.462891
 20
665.057251
  0
LWPOLYLINE
  5
45
100
AcDbEntity
  8
LAYER22
370
    18
390
0
  6
Continuous
 62
     1
100
AcDbPolyline
 90
        6
 70
     1
 10
279.007813
 20
704.579102
 10
279.007813
 20
694.581055
 10
276.007813
 20
697.538086
 10
266.007813
 20
697.538086
 10
266.007813
 20
701.538086
 10
276.007813
 20
701.538086
  0
LWPOLYLINE
  5
46
100
AcDbEntity
  8
LAYER22
370
    18
390
0
  6
Continuous
 62
     1
100
AcDbPolyline
 90
        2
 70
     0
 10
276.007813
 20
697.538086
 10
276.007813
 20
701.538086
  0
LWPOLYLINE
  5
47
100
AcDbEntity
  8
LAYER22
370
    18
390
0
  6
Continuous
 62
     1
100
AcDbPolyline
 90
       22
 70
     0
 10
266.007813
 20
697.538086
 10
263.757813
 20
701.388184
 10
261.617188
 20
697.830811
 10
259.327393
 20
701.092773
 10
256.875488
 20
698.146973
 10
254.57666
 20
700.776123
 10
252.25293
 20
698.455078
 10
250.027344
 20
700.4729
 10
247.982666
 20
698.73999
 10
246.155518
 20
700.2146
 10
244.531738
 20
698.969971
 10
243.413818
 20
700.031982
 10
242.330322
 20
699.116699
 10
241.285645
 20
699.889893
 10
240.317627
 20
699.250732
 10
239.575928
 20
699.776123
 10
238.695313
 20
699.359131
 10
238.144287
 20
699.680664
 10
237.77124
 20
699.420654
 10
237.220215
 20
699.618896
 10
236.848633
 20
699.482178
 10
236.017578
 20
699.580078
  0
LWPOLYLINE
  5
48
100
AcDbEntity
  8
LAYER22
370
    25
390
0
  6
Continuous
 62
     2
100
AcDbPolyline
 90
       16
 70
     1
 10
371.141113
 20
619.687439
 10
290.59137
 20
666.171204
 10
288.092255
 20
661.840576
 10
294.155121
 20
658.341797
 10
294.700348
 20
659.28656
 42
-1.0
 10
292.625397
 20
655.690979
 10
293.155487
 20
656.609558
 10
287.09259
 20
660.108337
 10
284.593475
 20
655.77771
 10
365.143219
 20
609.293945
 10
367.642334
 20
613.624573
 10
361.642029
 20
617.087219
 10
361.111969
 20
616.16864
 42
-1.035421
 10
363.18692
 20
619.764221
 10
362.641693
 20
618.819458
 10
368.641998
 20
615.356812
  0
LWPOLYLINE
  5
49
100
AcDbEntity
  8
LAYER22
370
    18
390
0
  6
DASHED
 62
     1
100
AcDbPolyline
 90
        4
 70
     1
 10
464.894531
 20
673.504883
 10
464.894531
 20
679.504883
 10
488.894531
 20
679.504883
 10
488.894531
 20
673.504883
  0
LWPOLYLINE
  5
4A
100
AcDbEntity
  8
LAYER22
370
    18
390
0
  6
DASHED
 62
     1
100
AcDbPolyline
 90
        4
 70
     1
 10
470.394531
 20
673.504883
 10
483.394531
 20
673.504883
 10
483.394531
 20
655.504883
 10
470.394531
 20
655.504883
  0
LWPOLYLINE
  5
4B
100
AcDbEntity
  8
LAYER22
370
    18
390
0
  6
DASHED
 62
     1
100
AcDbPolyline
 90
        4
 70
     1
 10
464.894531
 20
649.504883
 10
464.894531
 20
655.504883
 10
488.894531
 20
655.504883
 10
488.894531
 20
649.504883
  0
CIRCLE
  5
4C
100
AcDbEntity
  8
LAYER22
390
0
  6
Continuous
 62
     1
100
AcDbCircle
 10
476.894531
 20
664.504883
 30
0.0
 40
6.0
  0
CIRCLE
  5
4D
100
AcDbEntity
  8
LAYER22
390
0
  6
Continuous
 62
     1
100
AcDbCircle
 10
476.894531
 20
664.504883
 30
0.0
 40
5.0
  0
LWPOLYLINE
  5
4E
100
AcDbEntity
  8
LAYER22
370
    18
390
0
  6
DASHED
 62
     1
100
AcDbPolyline
 90
        2
 70
     0
 10
474.394531
 20
660.174805
 10
479.394531
 20
668.835083
  0
LWPOLYLINE
  5
4F
100
AcDbEntity
  8
LAYER22
370
    25
390
0
  6
Continuous
 62
     2
100
AcDbPolyline
 90
       22
 70
     0
 10
965.257935
 20
717.537231
 10
960.434204
 20
717.53717
 10
948.374268
 20
710.574524
 10
949.154541
 20
709.222839
 42
-1.0
 10
947.093872
 20
712.792236
 10
947.874268
 20
711.440491
 10
957.122192
 20
716.779541
 10
950.879517
 20
719.162109
 10
951.235413
 20
720.096191
 10
958.238403
 20
717.424072
 10
959.800415
 20
718.325928
 10
959.86676
 20
722.218506
 10
957.781799
 20
723.633484
 10
957.782227
 20
725.586487
 10
958.278809
 20
726.086487
 10
965.257813
 20
726.086426
 10
965.257813
 20
725.086487
 10
958.782227
 20
725.086548
 10
958.748047
 20
724.094971
 10
960.800354
 20
722.468384
 10
960.800415
 20
718.537231
 10
965.257935
 20
718.53717
  0
LWPOLYLINE
  5
50
100
AcDbEntity
  8
LAYER22
370
    25
390
0
  6
Continuous
 62
     2
100
AcDbPolyline
 90
       22
 70
     0
 10
965.257935
 20
717.537231
 10
970.081665
 20
717.537354
 10
982.141846
 20
710.575439
 10
981.361572
 20
709.223694
 42
1.0
 10
983.422485
 20
712.793091
 10
982.641846
 20
711.441284
 10
973.394165
 20
716.779968
 10
979.636353
 20
719.16272
 10
979.279846
 20
720.096863
 10
972.277954
 20
717.4245
 10
970.715454
 20
718.32605
 10
970.648499
 20
722.218689
 10
972.733459
 20
723.63385
 10
972.733398
 20
725.586792
 10
972.236328
 20
726.086731
 10
965.257813
 20
726.086426
 10
965.257813
 20
725.086487
 10
971.733398
 20
725.086975
 10
971.767578
 20
724.095337
 10
969.715393
 20
722.46875
 10
969.715454
 20
718.537415
 10
965.257935
 20
718.53717
  0
LWPOLYLINE
  5
51
100
AcDbEntity
  8
LAYER22
370
    18
390
0
  6
Continuous
 62
     1
100
AcDbPolyline
 90
        6
 70
     1
 10
1240.007813
 20
659.48584
 10
1240.007813
 20
669.483887
 10
1243.007813
 20
666.526855
 10
1253.007813
 20
666.526855
 10
1253.007813
 20
662.526855
 10
1243.007813
 20
662.526855
  0
LWPOLYLINE
  5
52
100
AcDbEntity
  8
LAYER22
370
    18
390
0
  6
Continuous
 62
     1
100
AcDbPolyline
 90
        2
 70
     0
 10
1243.007813
 20
666.526855
 10
1243.007813
 20
662.526855
  0
LWPOLYLINE
  5
53
100
AcDbEntity
  8
LAYER22
370
    18
390
0
  6
Continuous
 62
     1
100
AcDbPolyline
 90
       22
 70
     0
 10
1253.007813
 20
666.526855
 10
1255.257813
 20
662.676758
 10
1257.398438
 20
666.234131
 10
1259.688232
 20
662.972168
 10
1262.140137
 20
665.917969
 10
1264.438965
 20
663.288818
 10
1266.762695
 20
665.609863
 10
1268.988281
 20
663.592041
 10
1271.032959
 20
665.324951
 10
1272.860107
 20
663.850342
 10
1274.483887
 20
665.094971
 10
1275.601807
 20
664.032959
 10
1276.685303
 20
664.948242
 10
1277.72998
 20
664.175049
 10
1278.697998
 20
664.814209
 10
1279.439697
 20
664.288818
 10
1280.320313
 20
664.705811
 10
1280.871338
 20
664.384277
 10
1281.244385
 20
664.644287
 10
1281.79541
 20
664.446045
 10
1282.166992
 20
664.582764
 10
1282.998047
 20
664.484863
  0
LWPOLYLINE
  5
54
100
AcDbEntity
  8
LAYER22
370
    25
390
0
  6
Continuous
 62
     2
100
AcDbPolyline
 90
       18
 70
     0
 10
1240.007813
 20
664.484863
 10
1240.007813
 20
671.164063
 42
-0.268065
 10
1241.257813
 20
673.329041
 10
1248.833008
 20
677.702637
 10
1249.083008
 20
678.135742
 10
1249.083008
 20
680.184814
 10
1267.007813
 20
680.184814
 10
1267.007813
 20
678.184814
 10
1264.507813
 20
678.184814
 10
1264.507813
 20
678.784668
 10
1259.333984
 20
678.784668
 10
1259.333984
 20
672.084961
 10
1257.934082
 20
672.084961
 10
1257.934082
 20
678.784668
 10
1250.48291
 20
678.784668
 10
1250.48291
 20
675.884277
 10
1243.507813
 20
671.856934
 10
1243.507813
 20
664.484863
  0
LWPOLYLINE
  5
55
100
AcDbEntity
  8
LAYER22
370
    25
390
0
  6
Continuous
 62
     2
100
AcDbPolyline
 90
       18
 70
     0
 10
1240.007813
 20
664.484863
 10
1240.007813
 20
657.805664
 42
0.268065
 10
1241.257813
 20
655.640686
 10
1248.833008
 20
651.26709
 10
1249.083008
 20
650.833984
 10
1249.083008
 20
648.784912
 10
1267.007813
 20
648.784912
 10
1267.007813
 20
650.784912
 10
1264.507813
 20
650.784912
 10
1264.507813
 20
650.185059
 10
1259.333984
 20
650.185059
 10
1259.333984
 20
656.884766
 10
1257.934082
 20
656.884766
 10
1257.934082
 20
650.185059
 10
1250.48291
 20
650.185059
 10
1250.48291
 20
653.085449
 10
1243.507813
 20
657.112793
 10
1243.507813
 20
664.484863
  0
LWPOLYLINE
  5
56
100
AcDbEntity
  8
LAYER22
370
    25
390
0
  6
Continuous
 62
     2
100
AcDbPolyline
 90
       13
 70
     0
 10
1196.0625
 20
664.414551
 10
1196.0625
 20
674.237183
 10
1202.145996
 20
677.781616
 42
0.767315
 10
1201.895996
 20
678.7146
 10
1189.086914
 20
678.7146
 10
1189.086914
 20
678.114624
 10
1186.586914
 20
678.114624
 10
1186.586914
 20
680.114624
 10
1206.187988
 20
680.114624
 42
-0.767332
 10
1206.562988
 20
678.715088
 10
1199.112305
 20
674.413696
 42
0.267954
 10
1197.862183
 20
672.248535
 10
1197.862305
 20
664.414551
  0
LWPOLYLINE
  5
57
100
AcDbEntity
  8
LAYER22
370
    25
390
0
  6
Continuous
 62
     2
100
AcDbPolyline
 90
       13
 70
     0
 10
1196.0625
 20
664.414551
 10
1196.0625
 20
654.591919
 10
1202.145996
 20
651.047485
 42
-0.767315
 10
1201.895996
 20
650.114502
 10
1189.086914
 20
650.114502
 10
1189.086914
 20
650.714478
 10
1186.586914
 20
650.714478
 10
1186.586914
 20
648.714478
 10
1206.187988
 20
648.714478
 42
0.767332
 10
1206.562988
 20
650.114014
 10
1199.112305
 20
654.415405
 42
-0.267954
 10
1197.862183
 20
656.580566
 10
1197.862305
 20
664.414551
  0
LWPOLYLINE
  5
58
100
AcDbEntity
  8
LAYER22
370
    13
390
0
  6
DASHDOT
 62
     5
100
AcDbPolyline
 90
        2
 70
     0
 10
267.007813
 20
664.5
 10
1267.007813
 20
664.5
  0
LWPOLYLINE
  5
59
100
AcDbEntity
  8
LAYER22
370
    25
390
0
  6
Continuous
 62
     2
100
AcDbPolyline
 90
       10
 70
     1
 10
1071.0625
 20
676.914551
 10
1196.0625
 20
676.914551
 10
1196.0625
 20
651.914551
 10
1071.0625
 20
651.914551
 10
1071.0625
 20
663.414551
 10
1077.990234
 20
663.414551
 10
1077.990234
 20
662.354004
 42
1.035178
 10
1077.990234
 20
666.505371
 10
1077.990234
 20
665.414551
 10
1071.0625
 20
665.414551
  0
LWPOLYLINE
  5
5A
100
AcDbEntity
  8
LAYER22
370
    25
390
0
  6
Continuous
 62
     2
100
AcDbPolyline
 90
       27
 70
     1
 10
1049.84082
 20
669.688232
 42
-1.035231
 10
1051.916504
 20
673.283813
 10
1051.121094
 20
671.905884
 10
1060.368164
 20
666.567017
 10
1059.307617
 20
673.163696
 10
1060.294922
 20
673.322388
 10
1061.484863
 20
665.922363
 10
1063.152832
 20
664.862793
 10
1068.1875
 20
664.862793
 10
1070.240723
 20
677.013062
 10
1071.227051
 20
676.846436
 10
1069.213379
 20
664.929688
 10
1077.988281
 20
664.929688
 10
1077.988281
 20
666.505615
 42
-1.035174
 10
1077.988281
 20
662.35376
 10
1077.988281
 20
663.929688
 10
1069.213379
 20
663.929688
 10
1071.227051
 20
652.013062
 10
1070.240723
 20
651.846436
 10
1068.19873
 20
663.929688
 10
1062.902832
 20
663.929688
 10
1062.652832
 20
663.996826
 10
1060.984863
 20
665.056274
 10
1053.982422
 20
662.384033
 10
1053.625977
 20
663.318237
 10
1059.868652
 20
665.700684
 10
1050.5625
 20
671.07373
  0
LWPOLYLINE
  5
5B
100
AcDbEntity
  8
LAYER22
370
    18
390
0
  6
DASHED
 62
     1
100
AcDbPolyline
 90
        4
 70
     1
 10
1089.761719
 20
673.429688
 10
1089.761719
 20
679.429688
 10
1113.761719
 20
679.429688
 10
1113.761719
 20
673.429688
  0
LWPOLYLINE
  5
5C
100
AcDbEntity
  8
LAYER22
370
    18
390
0
  6
DASHED
 62
     1
100
AcDbPolyline
 90
        4
 70
     1
 10
1095.261719
 20
673.429688
 10
1108.261719
 20
673.429688
 10
1108.261719
 20
655.429688
 10
1095.261719
 20
655.429688
  0
LWPOLYLINE
  5
5D
100
AcDbEntity
  8
LAYER22
370
    18
390
0
  6
DASHED
 62
     1
100
AcDbPolyline
 90
        4
 70
     1
 10
1089.761719
 20
649.429688
 10
1089.761719
 20
655.429688
 10
1113.761719
 20
655.429688
 10
1113.761719
 20
649.429688
  0
CIRCLE
  5
5E
100
AcDbEntity
  8
LAYER22
390
0
  6
Continuous
 62
     1
100
AcDbCircle
 10
1101.761719
 20
664.429688
 30
0.0
 40
6.0
  0
CIRCLE
  5
5F
100
AcDbEntity
  8
LAYER22
390
0
  6
Continuous
 62
     1
100
AcDbCircle
 10
1101.761719
 20
664.429688
 30
0.0
 40
5.0
  0
LWPOLYLINE
  5
60
100
AcDbEntity
  8
LAYER22
370
    18
390
0
  6
DASHED
 62
     1
100
AcDbPolyline
 90
        2
 70
     0
 10
1099.261719
 20
660.099609
 10
1104.261719
 20
668.759888
  0
LWPOLYLINE
  5
61
100
AcDbEntity
  8
LAYER22
370
    18
390
0
  6
DASHED
 62
     1
100
AcDbPolyline
 90
        4
 70
     1
 10
1154.761719
 20
673.429688
 10
1154.761719
 20
679.429688
 10
1178.761719
 20
679.429688
 10
1178.761719
 20
673.429688
  0
LWPOLYLINE
  5
62
100
AcDbEntity
  8
LAYER22
370
    18
390
0
  6
DASHED
 62
     1
100
AcDbPolyline
 90
        4
 70
     1
 10
1160.261719
 20
673.429688
 10
1173.261719
 20
673.429688
 10
1173.261719
 20
655.429688
 10
1160.261719
 20
655.429688
  0
LWPOLYLINE
  5
63
100
AcDbEntity
  8
LAYER22
370
    18
390
0
  6
DASHED
 62
     1
100
AcDbPolyline
 90
        4
 70
     1
 10
1154.761719
 20
649.429688
 10
1154.761719
 20
655.429688
 10
1178.761719
 20
655.429688
 10
1178.761719
 20
649.429688
  0
CIRCLE
  5
64
100
AcDbEntity
  8
LAYER22
390
0
  6
Continuous
 62
     1
100
AcDbCircle
 10
1166.761719
 20
664.429688
 30
0.0
 40
6.0
  0
CIRCLE
  5
65
100
AcDbEntity
  8
LAYER22
390
0
  6
Continuous
 62
     1
100
AcDbCircle
 10
1166.761719
 20
664.429688
 30
0.0
 40
5.0
  0
LWPOLYLINE
  5
66
100
AcDbEntity
  8
LAYER22
370
    18
390
0
  6
DASHED
 62
     1
100
AcDbPolyline
 90
        2
 70
     0
 10
1164.261719
 20
660.099609
 10
1169.261719
 20
668.759888
  0
LWPOLYLINE
  5
67
100
AcDbEntity
  8
LAYER22
370
    25
390
0
  6
Continuous
 62
     2
100
AcDbPolyline
 90
       10
 70
     1
 10
267.007813
 20
671.5
 10
267.007813
 20
726.5
 10
279.007813
 20
726.5
 10
279.007813
 20
671.5
 10
274.007813
 20
671.5
 10
274.007813
 20
678.428711
 10
275.068359
 20
678.428711
 42
1.034934
 10
270.916992
 20
678.428711
 10
272.007813
 20
678.428711
 10
272.007813
 20
671.5
  0
LWPOLYLINE
  5
68
100
AcDbEntity
  8
LAYER22
370
    18
390
0
  6
Continuous
 62
     1
100
AcDbPolyline
 90
        6
 70
     1
 10
279.007813
 20
704.579102
 10
279.007813
 20
694.581055
 10
276.007813
 20
697.538086
 10
266.007813
 20
697.538086
 10
266.007813
 20
701.538086
 10
276.007813
 20
701.538086
  0
LWPOLYLINE
  5
69
100
AcDbEntity
  8
LAYER22
370
    18
390
0
  6
Continuous
 62
     1
100
AcDbPolyline
 90
        2
 70
     0
 10
276.007813
 20
697.538086
 10
276.007813
 20
701.538086
  0
LWPOLYLINE
  5
6A
100
AcDbEntity
  8
LAYER22
370
    18
390
0
  6
Continuous
 62
     1
100
AcDbPolyline
 90
       22
 70
     0
 10
266.007813
 20
697.538086
 10
263.757813
 20
701.388184
 10
261.617188
 20
697.830811
 10
259.327393
 20
701.092773
 10
256.875488
 20
698.146973
 10
254.57666
 20
700.776123
 10
252.25293
 20
698.455078
 10
250.027344
 20
700.4729
 10
247.982666
 20
698.73999
 10
246.155518
 20
700.2146
 10
244.531738
 20
698.969971
 10
243.413818
 20
700.031982
 10
242.330322
 20
699.116699
 10
241.285645
 20
699.889893
 10
240.317627
 20
699.250732
 10
239.575928
 20
699.776123
 10
238.695313
 20
699.359131
 10
238.144287
 20
699.680664
 10
237.77124
 20
699.420654
 10
237.220215
 20
699.618896
 10
236.848633
 20
699.482178
 10
236.017578
 20
699.580078
  0
LWPOLYLINE
  5
6B
100
AcDbEntity
  8
LAYER22
370
    25
390
0
  6
Continuous
 62
     2
100
AcDbPolyline
 90
       16
 70
     1
 10
761.832397
 20
619.686279
 10
588.629211
 20
719.689514
 10
586.12915
 20
715.359375
 10
592.191223
 20
711.859314
 10
592.736633
 20
712.803955
 42
-1.0
 10
590.660889
 20
709.208801
 10
591.191223
 20
710.127258
 10
585.129089
 20
713.62738
 10
582.629028
 20
709.297302
 10
755.832214
 20
609.294067
 10
758.332275
 20
613.624146
 10
752.332764
 20
617.088135
 10
751.80249
 20
616.169678
 42
-1.035421
 10
753.878235
 20
619.764832
 10
753.332825
 20
618.820129
 10
759.332336
 20
615.356201
  0
LWPOLYLINE
  5
6C
100
AcDbEntity
  8
LAYER22
370
    25
390
0
  6
Continuous
 62
     2
100
AcDbPolyline
 90
       16
 70
     1
 10
777.991821
 20
619.687256
 10
951.195007
 20
719.690491
 10
953.695068
 20
715.360352
 10
947.632996
 20
711.860291
 10
947.087585
 20
712.804932
 42
1.0
 10
949.16333
 20
709.209778
 10
948.632996
 20
710.128235
 10
954.695129
 20
713.628357
 10
957.19519
 20
709.298279
 10
783.992004
 20
609.295044
 10
781.491943
 20
613.625122
 10
787.491455
 20
617.089111
 10
788.021729
 20
616.170654
 42
1.035421
 10
785.945984
 20
619.765808
 10
786.491394
 20
618.821106
 10
780.491882
 20
615.357178
  0
LWPOLYLINE
  5
6D
100
AcDbEntity
  8
LAYER22
370
    25
390
0
  6
Continuous
 62
     2
100
AcDbPolyline
 90
       22
 70
     0
 10
769.91394
 20
611.474487
 10
774.737671
 20
611.474548
 10
786.797607
 20
618.437195
 10
786.017334
 20
619.788879
 42
-1.0
 10
788.078003
 20
616.219482
 10
787.297607
 20
617.571228
 10
778.049683
 20
612.232178
 10
784.292358
 20
609.849609
 10
783.936462
 20
608.915527
 10
776.933472
 20
611.587646
 10
775.37146
 20
610.685791
 10
775.305115
 20
606.793213
 10
777.390076
 20
605.378235
 10
777.389648
 20
603.425232
 10
776.893066
 20
602.925232
 10
769.914063
 20
602.925293
 10
769.914063
 20
603.925232
 10
776.389648
 20
603.925171
 10
776.423828
 20
604.916748
 10
774.371521
 20
606.543335
 10
774.37146
 20
610.474487
 10
769.91394
 20
610.474548
  0
LWPOLYLINE
  5
6E
100
AcDbEntity
  8
LAYER22
370
    25
390
0
  6
Continuous
 62
     2
100
AcDbPolyline
 90
       22
 70
     0
 10
769.91394
 20
611.474487
 10
765.09021
 20
611.474365
 10
753.030029
 20
618.436279
 10
753.810303
 20
619.788025
 42
1.0
 10
751.74939
 20
616.218628
 10
752.530029
 20
617.570435
 10
761.77771
 20
612.23175
 10
755.535522
 20
609.848999
 10
755.892029
 20
608.914856
 10
762.893921
 20
611.587219
 10
764.456421
 20
610.685669
 10
764.523376
 20
606.79303
 10
762.438416
 20
605.377869
 10
762.438477
 20
603.424927
 10
762.935547
 20
602.924988
 10
769.914063
 20
602.925293
 10
769.914063
 20
603.925232
 10
763.438477
 20
603.924744
 10
763.404297
 20
604.916382
 10
765.456482
 20
606.542969
 10
765.456421
 20
610.474304
 10
769.91394
 20
610.474548
  0
LWPOLYLINE
  5
6F
100
AcDbEntity
  8
LAYER22
370
    18
390
0
  6
DASHED
 62
     1
100
AcDbPolyline
 90
        4
 70
     1
 10
855.585938
 20
673.505859
 10
855.585938
 20
679.505859
 10
879.585938
 20
679.505859
 10
879.585938
 20
673.505859
  0
LWPOLYLINE
  5
70
100
AcDbEntity
  8
LAYER22
370
    18
390
0
  6
DASHED
 62
     1
100
AcDbPolyline
 90
        4
 70
     1
 10
861.085938
 20
673.505859
 10
874.085938
 20
673.505859
 10
874.085938
 20
655.505859
 10
861.085938
 20
655.505859
  0
LWPOLYLINE
  5
71
100
AcDbEntity
  8
LAYER22
370
    18
390
0
  6
DASHED
 62
     1
100
AcDbPolyline
 90
        4
 70
     1
 10
855.585938
 20
649.505859
 10
855.585938
 20
655.505859
 10
879.585938
 20
655.505859
 10
879.585938
 20
649.505859
  0
CIRCLE
  5
72
100
AcDbEntity
  8
LAYER22
390
0
  6
Continuous
 62
     1
100
AcDbCircle
 10
867.585938
 20
664.505859
 30
0.0
 40
6.0
  0
CIRCLE
  5
73
100
AcDbEntity
  8
LAYER22
390
0
  6
Continuous
 62
     1
100
AcDbCircle
 10
867.585938
 20
664.505859
 30
0.0
 40
5.0
  0
LWPOLYLINE
  5
74
100
AcDbEntity
  8
LAYER22
370
    18
390
0
  6
DASHED
 62
     1
100
AcDbPolyline
 90
        2
 70
     0
 10
865.085938
 20
660.175781
 10
870.085938
 20
668.83606
  0
LWPOLYLINE
  5
75
100
AcDbEntity
  8
LAYER22
370
    25
390
0
  6
Continuous
 62
     2
100
AcDbPolyline
 90
       16
 70
     1
 10
973.337402
 20
709.323303
 10
1053.887085
 20
662.839539
 10
1056.38623
 20
667.170166
 10
1050.323364
 20
670.668945
 10
1049.778198
 20
669.724182
 42
-1.0
 10
1051.853149
 20
673.319763
 10
1051.322998
 20
672.401184
 10
1057.385864
 20
668.902405
 10
1059.88501
 20
673.233032
 10
979.335327
 20
719.716797
 10
976.836182
 20
715.386169
 10
982.836487
 20
711.923523
 10
983.366577
 20
712.842102
 42
-1.035421
 10
981.291626
 20
709.246521
 10
981.836792
 20
710.191284
 10
975.836548
 20
713.653931
  0
LWPOLYLINE
  5
76
100
AcDbEntity
  8
LAYER22
370
    18
390
0
  6
DASHED
 62
     1
100
AcDbPolyline
 90
        4
 70
     1
 10
272.992188
 20
421.5
 10
272.992188
 20
427.5
 10
296.992188
 20
427.5
 10
296.992188
 20
421.5
  0
LWPOLYLINE
  5
77
100
AcDbEntity
  8
LAYER22
370
    18
390
0
  6
DASHED
 62
     1
100
AcDbPolyline
 90
        4
 70
     1
 10
278.492188
 20
421.5
 10
291.492188
 20
421.5
 10
291.492188
 20
403.5
 10
278.492188
 20
403.5
  0
LWPOLYLINE
  5
78
100
AcDbEntity
  8
LAYER22
370
    18
390
0
  6
DASHED
 62
     1
100
AcDbPolyline
 90
        4
 70
     1
 10
272.992188
 20
397.5
 10
272.992188
 20
403.5
 10
296.992188
 20
403.5
 10
296.992188
 20
397.5
  0
CIRCLE
  5
79
100
AcDbEntity
  8
LAYER22
390
0
  6
Continuous
 62
     1
100
AcDbCircle
 10
284.992188
 20
412.5
 30
0.0
 40
6.0
  0
CIRCLE
  5
7A
100
AcDbEntity
  8
LAYER22
390
0
  6
Continuous
 62
     1
100
AcDbCircle
 10
284.992188
 20
412.5
 30
0.0
 40
5.0
  0
LWPOLYLINE
  5
7B
100
AcDbEntity
  8
LAYER22
370
    18
390
0
  6
DASHED
 62
     1
100
AcDbPolyline
 90
        2
 70
     0
 10
282.492188
 20
408.169922
 10
287.492188
 20
416.8302
  0
LWPOLYLINE
  5
7C
100
AcDbEntity
  8
LAYER22
370
    18
390
0
  6
Continuous
 62
     1
100
AcDbPolyline
 90
        6
 70
     1
 10
1240.007813
 20
407.48584
 10
1240.007813
 20
417.483887
 10
1243.007813
 20
414.526855
 10
1253.007813
 20
414.526855
 10
1253.007813
 20
410.526855
 10
1243.007813
 20
410.526855
  0
LWPOLYLINE
  5
7D
100
AcDbEntity
  8
LAYER22
370
    18
390
0
  6
Continuous
 62
     1
100
AcDbPolyline
 90
        2
 70
     0
 10
1243.007813
 20
414.526855
 10
1243.007813
 20
410.526855
  0
LWPOLYLINE
  5
7E
100
AcDbEntity
  8
LAYER22
370
    18
390
0
  6
Continuous
 62
     1
100
AcDbPolyline
 90
       22
 70
     0
 10
1253.007813
 20
414.526855
 10
1255.257813
 20
410.676758
 10
1257.398438
 20
414.234131
 10
1259.688232
 20
410.972168
 10
1262.140137
 20
413.917969
 10
1264.438965
 20
411.288818
 10
1266.762695
 20
413.609863
 10
1268.988281
 20
411.592041
 10
1271.032959
 20
413.324951
 10
1272.860107
 20
411.850342
 10
1274.483887
 20
413.094971
 10
1275.601807
 20
412.032959
 10
1276.685303
 20
412.948242
 10
1277.72998
 20
412.175049
 10
1278.697998
 20
412.814209
 10
1279.439697
 20
412.288818
 10
1280.320313
 20
412.705811
 10
1280.871338
 20
412.384277
 10
1281.244385
 20
412.644287
 10
1281.79541
 20
412.446045
 10
1282.166992
 20
412.582764
 10
1282.998047
 20
412.484863
  0
LWPOLYLINE
  5
7F
100
AcDbEntity
  8
LAYER22
370
    25
390
0
  6
Continuous
 62
     2
100
AcDbPolyline
 90
       18
 70
     0
 10
1240.007813
 20
412.484863
 10
1240.007813
 20
419.164063
 42
-0.268065
 10
1241.257813
 20
421.329071
 10
1248.833008
 20
425.702637
 10
1249.083008
 20
426.135742
 10
1249.083008
 20
428.184814
 10
1267.007813
 20
428.184814
 10
1267.007813
 20
426.184814
 10
1264.507813
 20
426.184814
 10
1264.507813
 20
426.784668
 10
1259.333984
 20
426.784668
 10
1259.333984
 20
420.084961
 10
1257.934082
 20
420.084961
 10
1257.934082
 20
426.784668
 10
1250.48291
 20
426.784668
 10
1250.48291
 20
423.884277
 10
1243.507813
 20
419.856934
 10
1243.507813
 20
412.484863
  0
LWPOLYLINE
  5
80
100
AcDbEntity
  8
LAYER22
370
    25
390
0
  6
Continuous
 62
     2
100
AcDbPolyline
 90
       18
 70
     0
 10
1240.007813
 20
412.484863
 10
1240.007813
 20
405.805664
 42
0.268065
 10
1241.257813
 20
403.640656
 10
1248.833008
 20
399.26709
 10
1249.083008
 20
398.833984
 10
1249.083008
 20
396.784912
 10
1267.007813
 20
396.784912
 10
1267.007813
 20
398.784912
 10
1264.507813
 20
398.784912
 10
1264.507813
 20
398.185059
 10
1259.333984
 20
398.185059
 10
1259.333984
 20
404.884766
 10
1257.934082
 20
404.884766
 10
1257.934082
 20
398.185059
 10
1250.48291
 20
398.185059
 10
1250.48291
 20
401.085449
 10
1243.507813
 20
405.112793
 10
1243.507813
 20
412.484863
  0
LWPOLYLINE
  5
81
100
AcDbEntity
  8
LAYER22
370
    25
390
0
  6
Continuous
 62
     2
100
AcDbPolyline
 90
       13
 70
     0
 10
454.242188
 20
412.484863
 10
454.242188
 20
422.307495
 10
460.325684
 20
425.851929
 42
0.767315
 10
460.075684
 20
426.784882
 10
447.266602
 20
426.784912
 10
447.266602
 20
426.184937
 10
444.766602
 20
426.184937
 10
444.766602
 20
428.184937
 10
464.367676
 20
428.184937
 42
-0.767332
 10
464.742676
 20
426.7854
 10
457.291992
 20
422.484009
 42
0.267954
 10
456.041901
 20
420.318848
 10
456.041992
 20
412.484863
  0
LWPOLYLINE
  5
82
100
AcDbEntity
  8
LAYER22
370
    25
390
0
  6
Continuous
 62
     2
100
AcDbPolyline
 90
       13
 70
     0
 10
454.242188
 20
412.484863
 10
454.242188
 20
402.662231
 10
460.325684
 20
399.117798
 42
-0.767315
 10
460.075684
 20
398.184845
 10
447.266602
 20
398.184814
 10
447.266602
 20
398.78479
 10
444.766602
 20
398.78479
 10
444.766602
 20
396.78479
 10
464.367676
 20
396.78479
 42
0.767332
 10
464.742676
 20
398.184326
 10
457.291992
 20
402.485718
 42
-0.267954
 10
456.041901
 20
404.650879
 10
456.041992
 20
412.484863
  0
LWPOLYLINE
  5
83
100
AcDbEntity
  8
LAYER22
370
    13
390
0
  6
DASHDOT
 62
     5
100
AcDbPolyline
 90
        2
 70
     0
 10
267.007813
 20
412.5
 10
1267.007813
 20
412.5
  0
LWPOLYLINE
  5
84
100
AcDbEntity
  8
LAYER22
370
    25
390
0
  6
Continuous
 62
     2
100
AcDbPolyline
 90
       10
 70
     1
 10
329.242188
 20
424.984863
 10
454.242188
 20
424.984863
 10
454.242188
 20
399.984863
 10
329.242188
 20
399.984863
 10
329.242188
 20
411.484863
 10
336.169922
 20
411.484863
 10
336.169922
 20
410.424316
 42
1.035178
 10
336.169922
 20
414.575684
 10
336.169922
 20
413.484863
 10
329.242188
 20
413.484863
  0
LWPOLYLINE
  5
85
100
AcDbEntity
  8
LAYER22
370
    18
390
0
  6
DASHED
 62
     1
100
AcDbPolyline
 90
        4
 70
     1
 10
347.945313
 20
421.5
 10
347.945313
 20
427.5
 10
371.945313
 20
427.5
 10
371.945313
 20
421.5
  0
LWPOLYLINE
  5
86
100
AcDbEntity
  8
LAYER22
370
    18
390
0
  6
DASHED
 62
     1
100
AcDbPolyline
 90
        4
 70
     1
 10
353.445313
 20
421.5
 10
366.445313
 20
421.5
 10
366.445313
 20
403.5
 10
353.445313
 20
403.5
  0
LWPOLYLINE
  5
87
100
AcDbEntity
  8
LAYER22
370
    18
390
0
  6
DASHED
 62
     1
100
AcDbPolyline
 90
        4
 70
     1
 10
347.945313
 20
397.5
 10
347.945313
 20
403.5
 10
371.945313
 20
403.5
 10
371.945313
 20
397.5
  0
CIRCLE
  5
88
100
AcDbEntity
  8
LAYER22
390
0
  6
Continuous
 62
     1
100
AcDbCircle
 10
359.945313
 20
412.5
 30
0.0
 40
6.0
  0
CIRCLE
  5
89
100
AcDbEntity
  8
LAYER22
390
0
  6
Continuous
 62
     1
100
AcDbCircle
 10
359.945313
 20
412.5
 30
0.0
 40
5.0
  0
LWPOLYLINE
  5
8A
100
AcDbEntity
  8
LAYER22
370
    18
390
0
  6
DASHED
 62
     1
100
AcDbPolyline
 90
        2
 70
     0
 10
357.445313
 20
408.169922
 10
362.445313
 20
416.8302
  0
LWPOLYLINE
  5
8B
100
AcDbEntity
  8
LAYER22
370
    18
390
0
  6
DASHED
 62
     1
100
AcDbPolyline
 90
        4
 70
     1
 10
412.945313
 20
421.5
 10
412.945313
 20
427.5
 10
436.945313
 20
427.5
 10
436.945313
 20
421.5
  0
LWPOLYLINE
  5
8C
100
AcDbEntity
  8
LAYER22
370
    18
390
0
  6
DASHED
 62
     1
100
AcDbPolyline
 90
        4
 70
     1
 10
418.445313
 20
421.5
 10
431.445313
 20
421.5
 10
431.445313
 20
403.5
 10
418.445313
 20
403.5
  0
LWPOLYLINE
  5
8D
100
AcDbEntity
  8
LAYER22
370
    18
390
0
  6
DASHED
 62
     1
100
AcDbPolyline
 90
        4
 70
     1
 10
412.945313
 20
397.5
 10
412.945313
 20
403.5
 10
436.945313
 20
403.5
 10
436.945313
 20
397.5
  0
CIRCLE
  5
8E
100
AcDbEntity
  8
LAYER22
390
0
  6
Continuous
 62
     1
100
AcDbCircle
 10
424.945313
 20
412.5
 30
0.0
 40
6.0
  0
CIRCLE
  5
8F
100
AcDbEntity
  8
LAYER22
390
0
  6
Continuous
 62
     1
100
AcDbCircle
 10
424.945313
 20
412.5
 30
0.0
 40
5.0
  0
LWPOLYLINE
  5
90
100
AcDbEntity
  8
LAYER22
370
    18
390
0
  6
DASHED
 62
     1
100
AcDbPolyline
 90
        2
 70
     0
 10
422.445313
 20
408.169922
 10
427.445313
 20
416.8302
  0
LWPOLYLINE
  5
91
100
AcDbEntity
  8
LAYER22
370
    25
390
0
  6
Continuous
 62
     2
100
AcDbPolyline
 90
       21
 70
     0
 10
291.021484
 20
516.178223
 10
285.507813
 20
516.178223
 10
285.507813
 20
505.500488
 10
287.068359
 20
505.5
 42
-0.999763
 10
282.947266
 20
505.5
 10
284.507813
 20
505.5
 10
284.507813
 20
515.451172
 10
279.008789
 20
512.351318
 10
278.37793
 20
513.127197
 10
285.555664
 20
517.467285
 10
285.555664
 20
521.132568
 10
283.53125
 20
522.547607
 10
283.532227
 20
524.500488
 10
284.029297
 20
525.000488
 10
291.007813
 20
525.000488
 10
291.007813
 20
524.000488
 10
284.498047
 20
524.000488
 10
284.498047
 20
523.009033
 10
286.640625
 20
521.310791
 10
286.640625
 20
517.467285
 10
291.021484
 20
517.467285
  0
LWPOLYLINE
  5
92
100
AcDbEntity
  8
LAYER22
370
    25
390
0
  6
Continuous
 62
     2
100
AcDbPolyline
 90
       21
 70
     0
 10
290.994141
 20
516.178223
 10
296.507813
 20
516.178223
 10
296.507813
 20
505.500488
 10
294.947266
 20
505.5
 42
0.999763
 10
299.068359
 20
505.5
 10
297.507813
 20
505.5
 10
297.507813
 20
515.451172
 10
303.006836
 20
512.351318
 10
303.637695
 20
513.127197
 10
296.459961
 20
517.467285
 10
296.459961
 20
521.132568
 10
298.484375
 20
522.547607
 10
298.483398
 20
524.500488
 10
297.986328
 20
525.000488
 10
291.007813
 20
525.000488
 10
291.007813
 20
524.000488
 10
297.517578
 20
524.000488
 10
297.517578
 20
523.009033
 10
295.375
 20
521.310791
 10
295.375
 20
517.467285
 10
290.994141
 20
517.467285
  0
LWPOLYLINE
  5
93
100
AcDbEntity
  8
LAYER22
370
    25
390
0
  6
Continuous
 62
     2
100
AcDbPolyline
 90
       16
 70
     1
 10
279.007324
 20
312.5
 10
279.007324
 20
512.5
 10
284.007324
 20
512.5
 10
284.007324
 20
505.5
 10
282.916504
 20
505.5
 42
1.0
 10
287.067871
 20
505.5
 10
286.007324
 20
505.5
 10
286.007324
 20
512.5
 10
291.007324
 20
512.5
 10
291.007324
 20
312.5
 10
286.007324
 20
312.5
 10
286.007324
 20
319.427734
 10
287.067871
 20
319.427734
 42
1.035421
 10
282.916504
 20
319.427734
 10
284.007324
 20
319.427734
 10
284.007324
 20
312.5
  0
LWPOLYLINE
  5
94
100
AcDbEntity
  8
LAYER22
370
    25
390
0
  6
Continuous
 62
     2
100
AcDbPolyline
 90
       21
 70
     0
 10
303.035156
 20
308.821777
 10
297.521484
 20
308.821777
 10
297.521484
 20
319.499512
 10
299.082031
 20
319.5
 42
0.999763
 10
294.960938
 20
319.5
 10
296.521484
 20
319.5
 10
296.521484
 20
309.548828
 10
291.022461
 20
312.648682
 10
290.391602
 20
311.872803
 10
297.569336
 20
307.532715
 10
297.569336
 20
303.867432
 10
295.544922
 20
302.452393
 10
295.545898
 20
300.499512
 10
296.042969
 20
299.999512
 10
303.021484
 20
299.999512
 10
303.021484
 20
300.999512
 10
296.511719
 20
300.999512
 10
296.511719
 20
301.990967
 10
298.654297
 20
303.689209
 10
298.654297
 20
307.532715
 10
303.035156
 20
307.532715
  0
LWPOLYLINE
  5
95
100
AcDbEntity
  8
LAYER22
370
    25
390
0
  6
Continuous
 62
     2
100
AcDbPolyline
 90
       21
 70
     0
 10
303.007813
 20
308.821777
 10
308.521484
 20
308.821777
 10
308.521484
 20
319.499512
 10
306.960938
 20
319.5
 42
-0.999763
 10
311.082031
 20
319.5
 10
309.521484
 20
319.5
 10
309.521484
 20
309.548828
 10
315.020508
 20
312.648682
 10
315.651367
 20
311.872803
 10
308.473633
 20
307.532715
 10
308.473633
 20
303.867432
 10
310.498047
 20
302.452393
 10
310.49707
 20
300.499512
 10
310.0
 20
299.999512
 10
303.021484
 20
299.999512
 10
303.021484
 20
300.999512
 10
309.53125
 20
300.999512
 10
309.53125
 20
301.990967
 10
307.388672
 20
303.689209
 10
307.388672
 20
307.532715
 10
303.007813
 20
307.532715
  0
LWPOLYLINE
  5
96
100
AcDbEntity
  8
LAYER22
370
    25
390
0
  6
Continuous
 62
     2
100
AcDbPolyline
 90
       16
 70
     1
 10
291.007324
 20
312.5
 10
291.007324
 20
512.5
 10
296.007324
 20
512.5
 10
296.007324
 20
505.5
 10
294.916504
 20
505.5
 42
1.0
 10
299.067871
 20
505.5
 10
298.007324
 20
505.5
 10
298.007324
 20
512.5
 10
303.007324
 20
512.5
 10
303.007324
 20
312.5
 10
298.007324
 20
312.5
 10
298.007324
 20
319.427734
 10
299.067871
 20
319.427734
 42
1.035421
 10
294.916504
 20
319.427734
 10
296.007324
 20
319.427734
 10
296.007324
 20
312.5
  0
LWPOLYLINE
  5
97
100
AcDbEntity
  8
LAYER22
370
    18
390
0
  6
DASHED
 62
     1
100
AcDbPolyline
 90
        4
 70
     1
 10
296.992188
 20
421.5
 10
296.992188
 20
427.5
 10
320.992188
 20
427.5
 10
320.992188
 20
421.5
  0
LWPOLYLINE
  5
98
100
AcDbEntity
  8
LAYER22
370
    18
390
0
  6
DASHED
 62
     1
100
AcDbPolyline
 90
        4
 70
     1
 10
302.492188
 20
421.5
 10
315.492188
 20
421.5
 10
315.492188
 20
403.5
 10
302.492188
 20
403.5
  0
LWPOLYLINE
  5
99
100
AcDbEntity
  8
LAYER22
370
    18
390
0
  6
DASHED
 62
     1
100
AcDbPolyline
 90
        4
 70
     1
 10
296.992188
 20
397.5
 10
296.992188
 20
403.5
 10
320.992188
 20
403.5
 10
320.992188
 20
397.5
  0
CIRCLE
  5
9A
100
AcDbEntity
  8
LAYER22
390
0
  6
Continuous
 62
     1
100
AcDbCircle
 10
308.992188
 20
412.5
 30
0.0
 40
6.0
  0
CIRCLE
  5
9B
100
AcDbEntity
  8
LAYER22
390
0
  6
Continuous
 62
     1
100
AcDbCircle
 10
308.992188
 20
412.5
 30
0.0
 40
5.0
  0
LWPOLYLINE
  5
9C
100
AcDbEntity
  8
LAYER22
370
    18
390
0
  6
DASHED
 62
     1
100
AcDbPolyline
 90
        2
 70
     0
 10
306.492188
 20
408.169922
 10
311.492188
 20
416.8302
  0
LWPOLYLINE
  5
9D
100
AcDbEntity
  8
LAYER22
370
    25
390
0
  6
Continuous
 62
     2
100
AcDbPolyline
 90
       16
 70
     1
 10
303.007324
 20
312.5
 10
303.007324
 20
512.5
 10
308.007324
 20
512.5
 10
308.007324
 20
505.5
 10
306.916504
 20
505.5
 42
1.0
 10
311.067871
 20
505.5
 10
310.007324
 20
505.5
 10
310.007324
 20
512.5
 10
315.007324
 20
512.5
 10
315.007324
 20
312.5
 10
310.007324
 20
312.5
 10
310.007324
 20
319.427734
 10
311.067871
 20
319.427734
 42
1.035421
 10
306.916504
 20
319.427734
 10
308.007324
 20
319.427734
 10
308.007324
 20
312.5
  0
LWPOLYLINE
  5
9E
100
AcDbEntity
  8
LAYER22
370
    25
390
0
  6
Continuous
 62
     2
100
AcDbPolyline
 90
       16
 70
     1
 10
315.007324
 20
419.5
 10
315.007324
 20
512.5
 10
320.007324
 20
512.5
 10
320.007324
 20
505.5
 10
318.916504
 20
505.5
 42
1.0
 10
323.067871
 20
505.5
 10
322.007324
 20
505.5
 10
322.007324
 20
512.5
 10
327.007324
 20
512.5
 10
327.007324
 20
419.5
 10
322.007324
 20
419.5
 10
322.007324
 20
426.427734
 10
323.067871
 20
426.427734
 42
1.035421
 10
318.916504
 20
426.427734
 10
320.007324
 20
426.427734
 10
320.007324
 20
419.5
  0
LWPOLYLINE
  5
9F
100
AcDbEntity
  8
LAYER22
370
    25
390
0
  6
Continuous
 62
     2
100
AcDbPolyline
 90
       21
 70
     0
 10
315.021484
 20
516.178223
 10
309.507813
 20
516.178223
 10
309.507813
 20
505.500488
 10
311.068359
 20
505.5
 42
-0.999763
 10
306.947266
 20
505.5
 10
308.507813
 20
505.5
 10
308.507813
 20
515.451172
 10
303.008789
 20
512.351318
 10
302.37793
 20
513.127197
 10
309.555664
 20
517.467285
 10
309.555664
 20
521.132568
 10
307.53125
 20
522.547607
 10
307.532227
 20
524.500488
 10
308.029297
 20
525.000488
 10
315.007813
 20
525.000488
 10
315.007813
 20
524.000488
 10
308.498047
 20
524.000488
 10
308.498047
 20
523.009033
 10
310.640625
 20
521.310791
 10
310.640625
 20
517.467285
 10
315.021484
 20
517.467285
  0
LWPOLYLINE
  5
A0
100
AcDbEntity
  8
LAYER22
370
    25
390
0
  6
Continuous
 62
     2
100
AcDbPolyline
 90
       21
 70
     0
 10
314.994141
 20
516.178223
 10
320.507813
 20
516.178223
 10
320.507813
 20
505.500488
 10
318.947266
 20
505.5
 42
0.999763
 10
323.068359
 20
505.5
 10
321.507813
 20
505.5
 10
321.507813
 20
515.451172
 10
327.006836
 20
512.351318
 10
327.637695
 20
513.127197
 10
320.459961
 20
517.467285
 10
320.459961
 20
521.132568
 10
322.484375
 20
522.547607
 10
322.483398
 20
524.500488
 10
321.986328
 20
525.000488
 10
315.007813
 20
525.000488
 10
315.007813
 20
524.000488
 10
321.517578
 20
524.000488
 10
321.517578
 20
523.009033
 10
319.375
 20
521.310791
 10
319.375
 20
517.467285
 10
314.994141
 20
517.467285
  0
LWPOLYLINE
  5
A1
100
AcDbEntity
  8
LAYER22
370
    25
390
0
  6
Continuous
 62
     2
100
AcDbPolyline
 90
       16
 70
     1
 10
267.022949
 20
312.5
 10
267.022949
 20
405.5
 10
272.022949
 20
405.5
 10
272.022949
 20
398.5
 10
270.932129
 20
398.5
 42
1.0
 10
275.083496
 20
398.5
 10
274.022949
 20
398.5
 10
274.022949
 20
405.5
 10
279.022949
 20
405.5
 10
279.022949
 20
312.5
 10
274.022949
 20
312.5
 10
274.022949
 20
319.427734
 10
275.083496
 20
319.427734
 42
1.035421
 10
270.932129
 20
319.427734
 10
272.022949
 20
319.427734
 10
272.022949
 20
312.5
  0
LWPOLYLINE
  5
A2
100
AcDbEntity
  8
LAYER22
370
    25
390
0
  6
Continuous
 62
     2
100
AcDbPolyline
 90
       21
 70
     0
 10
279.035156
 20
308.821777
 10
273.521484
 20
308.821777
 10
273.521484
 20
319.499512
 10
275.082031
 20
319.5
 42
0.999763
 10
270.960938
 20
319.5
 10
272.521484
 20
319.5
 10
272.521484
 20
309.548828
 10
267.022461
 20
312.648682
 10
266.391602
 20
311.872803
 10
273.569336
 20
307.532715
 10
273.569336
 20
303.867432
 10
271.544922
 20
302.452393
 10
271.545898
 20
300.499512
 10
272.042969
 20
299.999512
 10
279.021484
 20
299.999512
 10
279.021484
 20
300.999512
 10
272.511719
 20
300.999512
 10
272.511719
 20
301.990967
 10
274.654297
 20
303.689209
 10
274.654297
 20
307.532715
 10
279.035156
 20
307.532715
  0
LWPOLYLINE
  5
A3
100
AcDbEntity
  8
LAYER22
370
    25
390
0
  6
Continuous
 62
     2
100
AcDbPolyline
 90
       21
 70
     0
 10
279.007813
 20
308.821777
 10
284.521484
 20
308.821777
 10
284.521484
 20
319.499512
 10
282.960938
 20
319.5
 42
-0.999763
 10
287.082031
 20
319.5
 10
285.521484
 20
319.5
 10
285.521484
 20
309.548828
 10
291.020508
 20
312.648682
 10
291.651367
 20
311.872803
 10
284.473633
 20
307.532715
 10
284.473633
 20
303.867432
 10
286.498047
 20
302.452393
 10
286.49707
 20
300.499512
 10
286.0
 20
299.999512
 10
279.021484
 20
299.999512
 10
279.021484
 20
300.999512
 10
285.53125
 20
300.999512
 10
285.53125
 20
301.990967
 10
283.388672
 20
303.689209
 10
283.388672
 20
307.532715
 10
279.007813
 20
307.532715
  0
LWPOLYLINE
  5
A4
100
AcDbEntity
  8
LAYER22
370
    25
390
0
  6
Continuous
 62
     2
100
AcDbPolyline
 90
       14
 70
     1
 10
321.492188
 20
412.966553
 10
326.385742
 20
412.966553
 10
328.439453
 20
425.116943
 10
329.425781
 20
424.950195
 10
327.412109
 20
413.033447
 10
336.186523
 20
413.033447
 10
336.186523
 20
414.609375
 42
-1.035174
 10
336.186523
 20
410.45752
 10
336.186523
 20
412.033447
 10
327.412109
 20
412.033447
 10
329.425781
 20
400.116699
 10
328.439453
 20
399.950195
 10
326.396484
 20
412.033447
 10
320.492188
 20
412.033447
  0
LWPOLYLINE
  5
A5
100
AcDbEntity
  8
LAYER22
370
    25
390
0
  6
Continuous
 62
     2
100
AcDbPolyline
 90
       14
 70
     1
 10
318.931641
 20
426.461182
 42
-1.035352
 10
323.083984
 20
426.461426
 10
321.492188
 20
426.461426
 10
321.492188
 20
415.783691
 10
326.675781
 20
420.000488
 10
327.306641
 20
419.224854
 10
321.492188
 20
414.494385
 10
321.492188
 20
412.966553
 10
320.492188
 20
412.033447
 10
320.492188
 20
414.494385
 10
314.677734
 20
419.222412
 10
315.308594
 20
419.998291
 10
320.492188
 20
415.783203
 10
320.492188
 20
426.461182
  0
LWPOLYLINE
  5
A6
100
AcDbEntity
  8
LAYER22
370
    25
390
0
  6
Continuous
 62
     2
100
AcDbPolyline
 90
       10
 70
     0
 10
272.506836
 20
412.5
 10
272.506836
 20
416.251953
 10
266.577148
 20
418.651611
 10
266.952148
 20
419.578369
 10
272.505859
 20
417.331055
 10
272.505859
 20
426.356934
 10
270.922852
 20
426.356934
 42
-1.035169
 10
275.075195
 20
426.356934
 10
273.506836
 20
426.356934
 10
273.505859
 20
412.5
  0
LWPOLYLINE
  5
A7
100
AcDbEntity
  8
LAYER22
370
    25
390
0
  6
Continuous
 62
     2
100
AcDbPolyline
 90
       10
 70
     0
 10
272.506836
 20
412.5
 10
272.506836
 20
408.02478
 10
266.577148
 20
405.625244
 10
266.952148
 20
404.698242
 10
272.505859
 20
406.945679
 10
272.505859
 20
398.5
 10
270.922852
 20
398.5
 42
1.035169
 10
275.075195
 20
398.5
 10
273.506836
 20
398.5
 10
273.505859
 20
412.5
  0
LWPOLYLINE
  5
A8
100
AcDbEntity
  8
LAYER22
370
    25
390
0
  6
Continuous
 62
     2
100
AcDbPolyline
 90
       10
 70
     1
 10
267.007813
 20
419.5
 10
267.007813
 20
474.5
 10
279.007813
 20
474.5
 10
279.007813
 20
419.5
 10
274.007813
 20
419.5
 10
274.007813
 20
426.428711
 10
275.068359
 20
426.428711
 42
1.034934
 10
270.916992
 20
426.428711
 10
272.007813
 20
426.428711
 10
272.007813
 20
419.5
  0
LWPOLYLINE
  5
A9
100
AcDbEntity
  8
LAYER22
370
    18
390
0
  6
Continuous
 62
     1
100
AcDbPolyline
 90
        6
 70
     1
 10
279.007813
 20
452.579102
 10
279.007813
 20
442.581055
 10
276.007813
 20
445.538086
 10
266.007813
 20
445.538086
 10
266.007813
 20
449.538086
 10
276.007813
 20
449.538086
  0
LWPOLYLINE
  5
AA
100
AcDbEntity
  8
LAYER22
370
    18
390
0
  6
Continuous
 62
     1
100
AcDbPolyline
 90
        2
 70
     0
 10
276.007813
 20
445.538086
 10
276.007813
 20
449.538086
  0
LWPOLYLINE
  5
AB
100
AcDbEntity
  8
LAYER22
370
    18
390
0
  6
Continuous
 62
     1
100
AcDbPolyline
 90
       22
 70
     0
 10
266.007813
 20
445.538086
 10
263.757813
 20
449.388184
 10
261.617188
 20
445.830811
 10
259.327393
 20
449.092773
 10
256.875488
 20
446.146973
 10
254.57666
 20
448.776123
 10
252.25293
 20
446.455078
 10
250.027344
 20
448.4729
 10
247.982666
 20
446.73999
 10
246.155518
 20
448.2146
 10
244.531738
 20
446.969971
 10
243.413818
 20
448.031982
 10
242.330322
 20
447.116699
 10
241.285645
 20
447.889893
 10
240.317627
 20
447.250732
 10
239.575928
 20
447.776123
 10
238.695313
 20
447.359131
 10
238.144287
 20
447.680664
 10
237.77124
 20
447.420654
 10
237.220215
 20
447.618896
 10
236.848633
 20
447.482178
 10
236.017578
 20
447.580078
  0
ENDSEC
  0
SECTION
  2
OBJECTS
  0
DICTIONARY
  5
19
100
AcDbDictionary
280
     0
281
     1
  3
ACAD_GROUP
350
1A
  3
ACAD_MLINESTYLE
350
1B
  3
ACAD_LAYOUT
350
1E
  3
ACAD_PLOTSETTINGS
350
22
  3
ACAD_PLOTSTYLENAME
350
1F
  3
ACAD_WIPEOUT_VARS
350
23
  0
DICTIONARY
  5
1A
102
{ACAD_REACTORS
330
19
102
}
100
AcDbDictionary
280
     0
281
     1
  0
DICTIONARY
  5
1B
102
{ACAD_REACTORS
330
19
102
}
100
AcDbDictionary
280
     0
281
     1
  3
Standard
350
1C
  0
MLINESTYLE
  5
1C
102
{ACAD_REACTORS
330
1B
102
}
100
AcDbMlineStyle
  2
Standard
 70
     0
  3

 62
     0
 51
90.0
 52
90.0
 71
     2
 49
0.5
 62
   256
  6
ByLayer
 49
-0.5
 62
   256
  6
ByLayer
  0
ACDBDICTIONARYWDFLT
  5
1F
102
{ACAD_REACTORS
330
19
102
}
100
AcDbDictionary
281
     1
  3
Normal
350
1D
100
AcDbDictionaryWithDefault
340
1D
  0
ACDBPLACEHOLDER
  5
1D
102
{ACAD_REACTORS
330
1F
102
}
  0
LAYOUT
  5
20
102
{ACAD_REACTORS
330
1E
102
}
100
AcDbPlotSettings
  1

  2

  4

  6

 40
0.0
 41
0.0
 42
0.0
 43
0.0
 44
0.0
 45
0.0
 46
0.0
 47
0.0
 48
0.0
 49
0.0
140
0.0
141
0.0
142
1.0
143
1.0
 70
  1024
 72
     0
 73
     0
 74
     0
  7

 75
     0
147
1.0
148
0.0
149
0.0
100
AcDbLayout
  1
Model
 70
     0
 71
     0
 10
0.0
 20
0.0
 11
0.0
 21
0.0
 12
0.0
 22
0.0
 32
0.0
 14
0.0
 24
0.0
 34
0.0
 15
0.0
 25
0.0
 35
0.0
146
0.0
 13
0.0
 23
0.0
 33
0.0
 16
0.0
 26
0.0
 36
0.0
 17
0.0
 27
0.0
 37
0.0
 76
     0
330
A
331
0
345
0
346
0
  0
LAYOUT
  5
21
102
{ACAD_REACTORS
330
1E
102
}
100
AcDbPlotSettings
  1

  2

  4

  6

 40
0.0
 41
0.0
 42
0.0
 43
0.0
 44
0.0
 45
0.0
 46
0.0
 47
0.0
 48
0.0
 49
0.0
140
0.0
141
0.0
142
1.0
143
1.0
 70
     0
 72
     0
 73
     0
 74
     0
  7

 75
     0
147
1.0
148
0.0
149
0.0
100
AcDbLayout
  1
Layout1
 70
     0
 71
     0
 10
0.0
 20
0.0
 11
0.0
 21
0.0
 12
0.0
 22
0.0
 32
0.0
 14
0.0
 24
0.0
 34
0.0
 15
0.0
 25
0.0
 35
0.0
146
0.0
 13
0.0
 23
0.0
 33
0.0
 16
0.0
 26
0.0
 36
0.0
 17
0.0
 27
0.0
 37
0.0
 76
     0
330
B
331
0
345
0
346
0
  0
DICTIONARY
  5
1E
102
{ACAD_REACTORS
330
19
102
}
100
AcDbDictionary
280
     0
281
     1
  3
Layout1
350
21
  3
Model
350
20
  0
DICTIONARY
  5
22
102
{ACAD_REACTORS
330
19
102
}
100
AcDbDictionary
280
     0
281
     1
  0
WIPEOUTVARIABLES
  5
23
100
AcDbWipeoutVariables
 70
     1
  0
ENDSEC
  0
EOF
