  0
SECTION
  2
HEADER
  9
$ACADVER
  1
AC1015
  9
$ACADMAINTVER
 70
     6
  9
$DWGCODEPAGE
  3
ANSI_1252
  9
$INSBASE
 10
0.0
 20
0.0
 30
0.0
  9
$EXTMIN
 10
1.000000E+20
 20
1.000000E+20
 30
1.000000E+20
  9
$EXTMAX
 10
-1.000000E+20
 20
-1.000000E+20
 30
-1.000000E+20
  9
$LIMMIN
 10
0.0
 20
0.0
  9
$LIMMAX
 10
0.0
 20
0.0
  9
$ORTHOMODE
 70
     0
  9
$REGENMODE
 70
     1
  9
$FILLMODE
 70
     1
  9
$QTEXTMODE
 70
     0
  9
$MIRRTEXT
 70
     1
  9
$LTSCALE
 40
50.0
  9
$ATTMODE
 70
     1
  9
$TEXTSIZE
 40
0.2
  9
$TRACEWID
 40
0.05
  9
$TEXTSTYLE
  7
Standard
  9
$CLAYER
  8
0
  9
$CELTYPE
  6
Continuous
  9
$CECOLOR
 62
   256
  9
$CELTSCALE
 40
1.0
  9
$DISPSILH
 70
     0
  9
$DIMSCALE
 40
1.0
  9
$DIMASZ
 40
0.18
  9
$DIMEXO
 40
0.0625
  9
$DIMDLI
 40
0.38
  9
$DIMRND
 40
0.0
  9
$DIMDLE
 40
0.0
  9
$DIMEXE
 40
0.18
  9
$DIMTP
 40
0.0
  9
$DIMTM
 40
0.0
  9
$DIMTXT
 40
0.18
  9
$DIMCEN
 40
0.09
  9
$DIMTSZ
 40
0.0
  9
$DIMTOL
 70
     0
  9
$DIMLIM
 70
     0
  9
$DIMTIH
 70
     1
  9
$DIMTOH
 70
     1
  9
$DIMSE1
 70
     0
  9
$DIMSE2
 70
     0
  9
$DIMTAD
 70
     0
  9
$DIMZIN
 70
     0
  9
$DIMBLK
  1

  9
$DIMASO
 70
     1
  9
$DIMSHO
 70
     1
  9
$DIMPOST
  1

  9
$DIMAPOST
  1

  9
$DIMALT
 70
     0
  9
$DIMALTD
 70
     2
  9
$DIMALTF
 40
25.4
  9
$DIMLFAC
 40
1.0
  9
$DIMTOFL
 70
     0
  9
$DIMTVP
 40
0.0
  9
$DIMTIX
 70
     0
  9
$DIMSOXD
 70
     0
  9
$DIMSAH
 70
     0
  9
$DIMBLK1
  1

  9
$DIMBLK2
  1

  9
$DIMSTYLE
  2
Standard
  9
$DIMCLRD
 70
     0
  9
$DIMCLRE
 70
     0
  9
$DIMCLRT
 70
     0
  9
$DIMTFAC
 40
1.0
  9
$DIMGAP
 40
0.09
  9
$DIMJUST
 70
     0
  9
$DIMSD1
 70
     0
  9
$DIMSD2
 70
     0
  9
$DIMTOLJ
 70
     1
  9
$DIMTZIN
 70
     0
  9
$DIMALTZ
 70
     0
  9
$DIMALTTZ
 70
     0
  9
$DIMUPT
 70
     0
  9
$DIMDEC
 70
     4
  9
$DIMTDEC
 70
     4
  9
$DIMALTU
 70
     2
  9
$DIMALTTD
 70
     2
  9
$DIMTXSTY
  7
Standard
  9
$DIMAUNIT
 70
     0
  9
$DIMADEC
 70
     0
  9
$DIMALTRND
 40
0.0
  9
$DIMAZIN
 70
     0
  9
$DIMDSEP
 70
     0
  9
$DIMATFIT
 70
     3
  9
$DIMFRAC
 70
     0
  9
$DIMLDRBLK
  1

  9
$DIMLUNIT
 70
     2
  9
$DIMLWD
 70
     0
  9
$DIMLWE
 70
     0
  9
$DIMTMOVE
 70
     0
  9
$LUNITS
 70
     2
  9
$LUPREC
 70
     4
  9
$SKETCHINC
 40
0.1
  9
$FILLETRAD
 40
0.0
  9
$AUNITS
 70
     0
  9
$AUPREC
 70
     0
  9
$MENU
  1
acad
  9
$ELEVATION
 40
0.0
  9
$PELEVATION
 40
0.0
  9
$THICKNESS
 40
0.0
  9
$LIMCHECK
 70
     0
  9
$CHAMFERA
 40
0.0
  9
$CHAMFERB
 40
0.0
  9
$CHAMFERC
 40
0.0
  9
$CHAMFERD
 40
0.0
  9
$SKPOLY
 70
     0
  9
$TDCREATE
 40
0.000000000
  9
$TDUCREATE
 40
0.000000000
  9
$TDUPDATE
 40
0.000000000
  9
$TDUUPDATE
 40
0.000000000
  9
$TDINDWG
 40
0.0000000000
  9
$TDUSRTIMER
 40
0.0000000000
  9
$USRTIMER
 70
     1
  9
$ANGBASE
 50
0.0
  9
$ANGDIR
 70
     0
  9
$PDMODE
 70
     0
  9
$PDSIZE
 40
0.0
  9
$PLINEWID
 40
0.0
  9
$SPLFRAME
 70
     0
  9
$SPLINETYPE
 70
     6
  9
$SPLINESEGS
 70
   120
  9
$HANDSEED
  5
AC
  9
$SURFTAB1
 70
     6
  9
$SURFTAB2
 70
     6
  9
$SURFTYPE
 70
     6
  9
$SURFU
 70
     6
  9
$SURFV
 70
     6
  9
$UCSBASE
  2

  9
$UCSNAME
  2

  9
$UCSORG
 10
0.0
 20
0.0
 30
0.0
  9
$UCSXDIR
 10
1.0
 20
0.0
 30
0.0
  9
$UCSYDIR
 10
0.0
 20
1.0
 30
0.0
  9
$UCSORTHOREF
  2

  9
$UCSORTHOVIEW
 70
     0
  9
$UCSORGTOP
 10
0.0
 20
0.0
 30
0.0
  9
$UCSORGBOTTOM
 10
0.0
 20
0.0
 30
0.0
  9
$UCSORGLEFT
 10
0.0
 20
0.0
 30
0.0
  9
$UCSORGRIGHT
 10
0.0
 20
0.0
 30
0.0
  9
$UCSORGFRONT
 10
0.0
 20
0.0
 30
0.0
  9
$UCSORGBACK
 10
0.0
 20
0.0
 30
0.0
  9
$PUCSBASE
  2

  9
$PUCSNAME
  2

  9
$PUCSORG
 10
0.0
 20
0.0
 30
0.0
  9
$PUCSXDIR
 10
1.0
 20
0.0
 30
0.0
  9
$PUCSYDIR
 10
0.0
 20
1.0
 30
0.0
  9
$PUCSORTHOREF
  2

  9
$PUCSORTHOVIEW
 70
     0
  9
$PUCSORGTOP
 10
0.0
 20
0.0
 30
0.0
  9
$PUCSORGBOTTOM
 10
0.0
 20
0.0
 30
0.0
  9
$PUCSORGLEFT
 10
0.0
 20
0.0
 30
0.0
  9
$PUCSORGRIGHT
 10
0.0
 20
0.0
 30
0.0
  9
$PUCSORGFRONT
 10
0.0
 20
0.0
 30
0.0
  9
$PUCSORGBACK
 10
0.0
 20
0.0
 30
0.0
  9
$USERI1
 70
 12345
  9
$USERI2
 70
     0
  9
$USERI3
 70
     0
  9
$USERI4
 70
     0
  9
$USERI5
 70
     0
  9
$USERR1
 40
0.0
  9
$USERR2
 40
0.0
  9
$USERR3
 40
0.0
  9
$USERR4
 40
0.0
  9
$USERR5
 40
0.0
  9
$WORLDVIEW
 70
     1
  9
$SHADEDGE
 70
     3
  9
$SHADEDIF
 70
    70
  9
$TILEMODE
 70
     1
  9
$MAXACTVP
 70
    16
  9
$PINSBASE
 10
0.0
 20
0.0
 30
0.0
  9
$PLIMCHECK
 70
     0
  9
$PEXTMIN
 10
1.000000E+20
 20
1.000000E+20
 30
1.000000E+20
  9
$PEXTMAX
 10
-1.000000E+20
 20
-1.000000E+20
 30
-1.000000E+20
  9
$PLIMMIN
 10
0.0
 20
0.0
  9
$PLIMMAX
 10
12.0
 20
9.0
  9
$UNITMODE
 70
     0
  9
$VISRETAIN
 70
     0
  9
$PLINEGEN
 70
     1
  9
$PSLTSCALE
 70
     0
  9
$TREEDEPTH
 70
  3020
  9
$CMLSTYLE
  2
Standard
  9
$CMLJUST
 70
     0
  9
$CMLSCALE
 40
1.0
  9
$PROXYGRAPHICS
 70
     0
  9
$MEASUREMENT
 70
     0
  9
$CELWEIGHT
370
     0
  9
$ENDCAPS
280
     0
  9
$JOINSTYLE
280
     0
  9
$LWDISPLAY
290
     0
  9
$INSUNITS
 70
     0
  9
$HYPERLINKBASE
  1

  9
$STYLESHEET
  1

  9
$XEDIT
290
     1
  9
$CEPSNTYPE
380
     0
  9
$PSTYLEMODE
290
     1
  9
$FINGERPRINTGUID
  2

  9
$VERSIONGUID
  2

  9
$EXTNAMES
290
     1
  9
$PSVPSCALE
 40
0.0
  0
ENDSEC
  0
SECTION
  2
CLASSES
  0
CLASS
  1
LWPOLYLINE
  2
AcDbPolyline
  3
AutoCAD 2000
 90
        0
280
     0
281
     1
  0
CLASS
  1
IMAGE
  2
AcDbRasterImage
  3
ISM
 90
      127
280
     0
281
     1
  0
CLASS
  1
OLE2FRAME
  2
AcDbOle2Frame
  3
AutoCAD 2000
 90
        0
280
     0
281
     1
  0
CLASS
  1
HATCH
  2
AcDbHatch
  3
AutoCAD 2000
 90
        0
280
     0
281
     1
  0
CLASS
  1
DICTIONARYVAR
  2
AcDbDictionaryVar
  3
AutoCAD 2000
 90
        0
280
     0
281
     0
  0
CLASS
  1
RASTERVARIABLES
  2
AcDbRasterVariables
  3
ISM
 90
        0
280
     0
281
     0
  0
CLASS
  1
IMAGEDEF
  2
AcDbRasterImageDef
  3
ISM
 90
        0
280
     0
281
     0
  0
CLASS
  1
IMAGEDEF_REACTOR
  2
AcDbRasterImageDefReactor
  3
ISM
 90
        1
280
     0
281
     0
  0
CLASS
  1
IDBUFFER
  2
AcDbIdBuffer
  3
AutoCAD 2000
 90
        0
280
     0
281
     0
  0
CLASS
  1
SPATIAL_FILTER
  2
AcDbSpatialFilter
  3
AutoCAD 2000
 90
        0
280
     0
281
     0
  0
CLASS
  1
XRECORD
  2
AcDbXrecord
  3
AutoCAD 2000
 90
        0
280
     0
281
     0
  0
CLASS
  1
SORTENTSTABLE
  2
AcDbSortentsTable
  3
AutoCAD 2000
 90
        0
280
     0
281
     0
  0
CLASS
  1
LAYER_INDEX
  2
AcDbLayerIndex
  3
AutoCAD 2000
 90
        0
280
     0
281
     0
  0
CLASS
  1
SPATIAL_INDEX
  2
AcDbSpatialIndex
  3
AutoCAD 2000
 90
        0
280
     0
281
     0
  0
CLASS
  1
OBJECT_PTR
  2
CAseDLPNTableRecord
  3
"ASE-LPNTableRecord"
 90
        1
280
     0
281
     0
  0
CLASS
  1
LAYOUT
  2
AcDbLayout
  3
AutoCAD 2000
 90
        0
280
     0
281
     0
  0
CLASS
  1
PLOTSETTINGS
  2
AcDbPlotSettings
  3
AutoCAD 2000
 90
        0
280
     0
281
     0
  0
CLASS
  1
ACDBDICTIONARYWDFLT
  2
AcDbDictionaryWithDefault
  3
AutoCAD 2000
 90
        0
280
     0
281
     0
  0
CLASS
  1
ACDBPLACEHOLDER
  2
AcDbPlaceHolder
  3
AutoCAD 2000
 90
        0
280
     0
281
     0
  0
CLASS
  1
VBA_PROJECT
  2
AcDbVbaProject
  3
acadvba
 90
        0
280
     0
281
     0
  0
CLASS
  1
WIPEOUT
  2
AcDbWipeout
  3
WipeOut|AutoCAD Express Tool|expresstools@autodesk.com
 90
      127
280
     0
281
     1
  0
CLASS
  1
WIPEOUTVARIABLES
  2
AcDbWipeoutVariables
  3
WipeOut|AutoCAD Express Tool|expresstools@autodesk.com
 90
        0
280
     0
281
     0
  0
CLASS
  1
RTEXT
  2
RText
  3
RText|AutoCAD Express Tool|expresstools@autodesk.com
 90
        0
280
     0
281
     1
  0
CLASS
  1
ARCALIGNEDTEXT
  2
AcDbArcAlignedText
  3
ATEXT|AutoCAD Express Tool|expresstools@autodesk.com
 90
        0
280
     0
281
     1
  0
ENDSEC
  0
SECTION
  2
TABLES
  0
TABLE
  2
VPORT
  5
7
100
AcDbSymbolTable
 70
     1
  0
VPORT
  5
15
100
AcDbSymbolTableRecord
100
AcDbViewportTableRecord
  2
*ACTIVE
 70
     0
 10
0.0
 20
0.0
 11
1.0
 21
1.0
 12
409.0
 22
-328.0
 13
0.0
 23
0.0
 14
1.0
 24
1.0
 15
0.0
 25
0.0
 16
0.0
 26
0.0
 36
1.0
 17
0.0
 27
0.0
 37
0.0
 40
2884.0
 41
0.688564
 42
50.0
 43
0.0
 44
0.0
 50
0.0
 51
0.0
 71
     0
 72
   100
 73
     1
 74
     1
 75
     0
 76
     0
 77
     0
 78
     0
281
     0
 65
     0
110
0.0
120
0.0
130
0.0
111
1.0
121
0.0
131
0.0
112
0.0
122
1.0
132
0.0
345
0
346
0
 79
     0
146
0.0
  0
ENDTAB
  0
TABLE
  2
LTYPE
  5
4
100
AcDbSymbolTable
 70
     7
  0
LTYPE
  5
11
100
AcDbSymbolTableRecord
100
AcDbLinetypeTableRecord
  2
ByBlock
 70
    64
  3

 72
    65
 73
     0
 40
0.0
  0
LTYPE
  5
12
100
AcDbSymbolTableRecord
100
AcDbLinetypeTableRecord
  2
ByLayer
 70
    64
  3

 72
    65
 73
     0
 40
0.0
  0
LTYPE
  5
13
100
AcDbSymbolTableRecord
100
AcDbLinetypeTableRecord
  2
Continuous
 70
    64
  3
Solid line
 72
    65
 73
     0
 40
0.0
  0
LTYPE
  5
24
100
AcDbSymbolTableRecord
100
AcDbLinetypeTableRecord
  2
DASHED
 70
    64
  3
Dashed __ __ __
 72
    65
 73
     2
 40
0.75
 49
0.5
 74
     0
 49
-0.25
 74
     0
  0
LTYPE
  5
25
100
AcDbSymbolTableRecord
100
AcDbLinetypeTableRecord
  2
DOT
 70
    64
  3
Dot . . . .
 72
    65
 73
     2
 40
0.25
 49
0.0
 74
     0
 49
-0.25
 74
     0
  0
LTYPE
  5
26
100
AcDbSymbolTableRecord
100
AcDbLinetypeTableRecord
  2
DASHDOT
 70
    64
  3
Dash dot __ . __ .
 72
    65
 73
     4
 40
1.0
 49
0.5
 74
     0
 49
-0.25
 74
     0
 49
0.0
 74
     0
 49
-0.25
 74
     0
  0
LTYPE
  5
27
100
AcDbSymbolTableRecord
100
AcDbLinetypeTableRecord
  2
DIVIDE
 70
    64
  3
Divide __ . . __ . .
 72
    65
 73
     6
 40
1.25
 49
0.5
 74
     0
 49
-0.25
 74
     0
 49
0.0
 74
     0
 49
-0.25
 74
     0
 49
0.0
 74
     0
 49
-0.25
 74
     0
  0
ENDTAB
  0
TABLE
  2
LAYER
  5
2
100
AcDbSymbolTable
 70
     3
  0
LAYER
  5
14
100
AcDbSymbolTableRecord
100
AcDbLayerTableRecord
  2
0
 70
     0
 62
     7
  6
Continuous
290
     1
370
    -3
390
1D
  0
LAYER
  5
29
100
AcDbSymbolTableRecord
100
AcDbLayerTableRecord
  2
LAYER01
 70
     0
 62
     7
  6
Continuous
290
     1
370
    -3
390
1D
  0
LAYER
  5
2B
100
AcDbSymbolTableRecord
100
AcDbLayerTableRecord
  2
LAYER22
 70
     0
 62
     7
  6
Continuous
290
     1
370
    -3
390
1D
  0
ENDTAB
  0
TABLE
  2
STYLE
  5
3
100
AcDbSymbolTable
 70
     1
  0
STYLE
  5
17
100
AcDbSymbolTableRecord
100
AcDbTextStyleTableRecord
  2
Standard
 70
     0
 40
0.0
 41
1.0
 50
0.0
 71
     0
 42
0.0
  3
txt
  4

  0
ENDTAB
  0
TABLE
  2
VIEW
  5
5
100
AcDbSymbolTable
 70
     0
  0
ENDTAB
  0
TABLE
  2
UCS
  5
6
100
AcDbSymbolTable
 70
     0
  0
ENDTAB
  0
TABLE
  2
APPID
  5
8
100
AcDbSymbolTable
 70
     1
  0
APPID
  5
16
100
AcDbSymbolTableRecord
100
AcDbRegAppTableRecord
  2
ACAD
 70
     0
  0
ENDTAB
  0
TABLE
  2
DIMSTYLE
  5
9
100
AcDbSymbolTable
 70
     1
100
AcDbDimStyleTable
 71
     0
  0
DIMSTYLE
105
18
100
AcDbSymbolTableRecord
100
AcDbDimStyleTableRecord
  2
Standard
 70
     0
  3

  4

 40
1.0
 41
0.18
 42
0.0625
 43
0.38
 44
0.18
 45
0.0
 46
0.0
 47
0.0
 48
0.0
 71
     0
 72
     0
 73
     1
 74
     1
 75
     0
 76
     0
 77
     0
 78
     0
 79
     0
140
0.18
141
0.09
142
0.0
143
25.4
144
1.0
145
0.0
146
1.0
147
0.09
148
0.0
170
     0
171
     2
172
     0
173
     0
174
     0
175
     0
176
     0
177
     0
178
     0
179
     0
271
     4
272
     4
273
     2
274
     2
275
     0
276
     0
277
     2
278
    46
279
     0
280
     0
281
     0
282
     0
283
     1
284
     0
285
     0
286
     0
288
     0
289
     3
340
17
341
0
342
0
343
0
344
0
371
    -2
372
    -2
  0
ENDTAB
  0
TABLE
  2
BLOCK_RECORD
  5
1
100
AcDbSymbolTable
 70
     0
  0
BLOCK_RECORD
  5
A
100
AcDbSymbolTableRecord
100
AcDbBlockTableRecord
  2
*MODEL_SPACE
340
20
  0
BLOCK_RECORD
  5
B
100
AcDbSymbolTableRecord
100
AcDbBlockTableRecord
  2
*PAPER_SPACE
340
21
  0
ENDTAB
  0
ENDSEC
  0
SECTION
  2
BLOCKS
  0
BLOCK
  5
D
100
AcDbEntity
  8
0
390
0
100
AcDbBlockBegin
  2
*MODEL_SPACE
 70
     0
 10
0.0
 20
0.0
 30
0.0
  3
*MODEL_SPACE
  1

  0
ENDBLK
  5
E
100
AcDbEntity
  8
0
390
0
100
AcDbBlockEnd
  0
BLOCK
  5
F
100
AcDbEntity
 67
     1
  8
0
390
0
100
AcDbBlockBegin
  2
*PAPER_SPACE
 70
     0
 10
0.0
 20
0.0
 30
0.0
  3
*PAPER_SPACE
  1

  0
ENDBLK
  5
10
100
AcDbEntity
 67
     1
  8
0
390
0
100
AcDbBlockEnd
  0
ENDSEC
  0
SECTION
  2
ENTITIES
  0
MTEXT
  5
28
100
AcDbEntity
  8
LAYER01
390
0
 62
     2
100
AcDbMText
 10
-359.0
 20
1047.0
 30
0.0
 40
11.25
 41
0.0
 71
     7
 72
     1
  1
UNO 6
 11
1.0
 21
0.0
 31
0.0
 73
     1
 44
1.333333
  0
LWPOLYLINE
  5
2A
100
AcDbEntity
  8
LAYER22
370
    13
390
0
  6
Continuous
 62
     5
100
AcDbPolyline
 90
        2
 70
     0
 10
-270.0
 20
826.0
 10
-120.0
 20
826.0
  0
LWPOLYLINE
  5
2C
100
AcDbEntity
  8
LAYER22
370
    18
390
0
  6
Continuous
 62
     1
100
AcDbPolyline
 90
        2
 70
     0
 10
-270.000031
 20
828.5
 10
-270.000031
 20
818.5
  0
LWPOLYLINE
  5
2D
100
AcDbEntity
  8
LAYER22
370
    18
390
0
  6
Continuous
 62
     1
100
AcDbPolyline
 90
        2
 70
     0
 10
-120.000038
 20
828.5
 10
-120.000038
 20
818.5
  0
MTEXT
  5
2E
100
AcDbEntity
  8
LAYER22
390
0
 62
     2
100
AcDbMText
 10
-195.0
 20
830.166687
 30
0.0
 40
11.25
 41
0.0
 71
     8
 72
     1
  1
150
 11
1.0
 21
0.0
 31
0.0
 73
     1
 44
1.333333
  0
LWPOLYLINE
  5
2F
100
AcDbEntity
  8
LAYER22
370
    18
390
0
  6
Continuous
 62
     1
100
AcDbPolyline
 90
        4
 70
     1
 10
-270.0
 20
-1695.0
 10
-270.0
 20
933.0
 10
-120.0
 20
933.0
 10
-120.0
 20
-1695.0
  0
LWPOLYLINE
  5
30
100
AcDbEntity
  8
LAYER22
370
    18
390
0
  6
Continuous
 62
     1
100
AcDbPolyline
 90
        4
 70
     1
 10
-120.0
 20
-1695.0
 10
-120.0
 20
933.0
 10
-90.0
 20
933.0
 10
-90.0
 20
-1695.0
  0
LWPOLYLINE
  5
31
100
AcDbEntity
  8
LAYER22
370
    25
390
0
  6
Continuous
 62
     2
100
AcDbPolyline
 90
       23
 70
     0
 10
-195.0
 20
985.0
 10
-185.662598
 20
984.999512
 10
-185.662598
 20
983.384766
 10
-176.072754
 20
983.384766
 42
-0.414214
 10
-174.45752
 20
981.769531
 10
-174.45752
 20
959.056641
 10
-173.723633
 20
954.895508
 42
-0.466313
 10
-175.314453
 20
952.999939
 10
-186.016113
 20
953.0
 42
-0.469821
 10
-187.603455
 20
954.914124
 10
-186.823242
 20
959.056641
 10
-185.813965
 20
959.056641
 10
-185.813965
 20
955.725586
 10
-185.107422
 20
955.019043
 10
-179.555176
 20
955.019043
 10
-178.848633
 20
955.725586
 10
-178.848633
 20
959.056641
 10
-176.476563
 20
959.056641
 10
-176.476563
 20
978.337402
 42
0.414214
 10
-179.504883
 20
981.365723
 10
-188.589844
 20
981.365723
 10
-188.589844
 20
982.879883
 10
-195.0
 20
982.879883
  0
LWPOLYLINE
  5
32
100
AcDbEntity
  8
LAYER22
370
    25
390
0
  6
Continuous
 62
     2
100
AcDbPolyline
 90
       23
 70
     0
 10
-195.0
 20
985.0
 10
-204.337402
 20
984.999512
 10
-204.337402
 20
983.384766
 10
-213.927246
 20
983.384766
 42
0.414214
 10
-215.54248
 20
981.769531
 10
-215.54248
 20
959.056641
 10
-216.276367
 20
954.895508
 42
0.466313
 10
-214.685547
 20
952.999939
 10
-203.983887
 20
953.0
 42
0.469821
 10
-202.396545
 20
954.914124
 10
-203.176758
 20
959.056641
 10
-204.186035
 20
959.056641
 10
-204.186035
 20
955.725586
 10
-204.892578
 20
955.019043
 10
-210.444824
 20
955.019043
 10
-211.151367
 20
955.725586
 10
-211.151367
 20
959.056641
 10
-213.523438
 20
959.056641
 10
-213.523438
 20
978.337402
 42
-0.414214
 10
-210.495117
 20
981.365723
 10
-201.410156
 20
981.365723
 10
-201.410156
 20
982.879883
 10
-195.0
 20
982.879883
  0
LWPOLYLINE
  5
33
100
AcDbEntity
  8
LAYER22
370
    18
390
0
  6
Continuous
 62
     1
100
AcDbPolyline
 90
        6
 70
     1
 10
-190.000977
 20
982.879883
 10
-199.999023
 20
982.879883
 10
-197.041992
 20
985.879883
 10
-197.041992
 20
995.879883
 10
-193.041992
 20
995.879883
 10
-193.041992
 20
985.879883
  0
LWPOLYLINE
  5
34
100
AcDbEntity
  8
LAYER22
370
    18
390
0
  6
Continuous
 62
     1
100
AcDbPolyline
 90
        2
 70
     0
 10
-197.041992
 20
985.879883
 10
-193.041992
 20
985.879883
  0
LWPOLYLINE
  5
35
100
AcDbEntity
  8
LAYER22
370
    18
390
0
  6
Continuous
 62
     1
100
AcDbPolyline
 90
       22
 70
     0
 10
-197.041992
 20
995.879883
 10
-193.191895
 20
998.129883
 10
-196.749268
 20
1000.270508
 10
-193.487305
 20
1002.560303
 10
-196.433105
 20
1005.012207
 10
-193.803955
 20
1007.311035
 10
-196.125
 20
1009.634766
 10
-194.107178
 20
1011.860352
 10
-195.840088
 20
1013.905029
 10
-194.365479
 20
1015.732178
 10
-195.610107
 20
1017.355957
 10
-194.548096
 20
1018.473877
 10
-195.463379
 20
1019.557373
 10
-194.690186
 20
1020.602051
 10
-195.329346
 20
1021.570068
 10
-194.803955
 20
1022.311768
 10
-195.220947
 20
1023.192383
 10
-194.899414
 20
1023.743408
 10
-195.159424
 20
1024.116455
 10
-194.961182
 20
1024.66748
 10
-195.0979
 20
1025.039063
 10
-195.0
 20
1025.870117
  0
LWPOLYLINE
  5
36
100
AcDbEntity
  8
LAYER22
370
    18
390
0
  6
Continuous
 62
     1
100
AcDbPolyline
 90
        4
 70
     1
 10
-210.696777
 20
979.246094
 10
-204.640137
 20
979.246094
 10
-204.640137
 20
955.019043
 10
-210.696777
 20
955.019043
  0
LWPOLYLINE
  5
37
100
AcDbEntity
  8
LAYER22
370
    18
390
0
  6
Continuous
 62
     1
100
AcDbPolyline
 90
        4
 70
     1
 10
-204.640137
 20
973.693848
 10
-185.359375
 20
973.693848
 10
-185.359375
 20
960.570801
 10
-204.640137
 20
960.570801
  0
LWPOLYLINE
  5
38
100
AcDbEntity
  8
LAYER22
370
    18
390
0
  6
Continuous
 62
     1
100
AcDbPolyline
 90
        4
 70
     1
 10
-185.359375
 20
979.246094
 10
-179.302734
 20
979.246094
 10
-179.302734
 20
955.019043
 10
-185.359375
 20
955.019043
  0
LWPOLYLINE
  5
39
100
AcDbEntity
  8
LAYER22
370
    18
390
0
  6
Continuous
 62
     1
100
AcDbPolyline
 90
        4
 70
     1
 10
-189.952637
 20
960.570801
 10
-189.952637
 20
933.0
 10
-200.047363
 20
933.0
 10
-200.047363
 20
960.570801
  0
LWPOLYLINE
  5
3A
100
AcDbEntity
  8
LAYER22
370
    25
390
0
  6
Continuous
 62
     2
100
AcDbPolyline
 90
        4
 70
     1
 10
-173.0
 20
953.0
 10
-173.0
 20
985.0
 10
-73.0
 20
985.0
 10
-73.0
 20
953.0
  0
LWPOLYLINE
  5
3B
100
AcDbEntity
  8
LAYER22
370
    25
390
0
  6
Continuous
 62
     2
100
AcDbPolyline
 90
        4
 70
     1
 10
-317.0
 20
953.0
 10
-317.0
 20
985.0
 10
-217.0
 20
985.0
 10
-217.0
 20
953.0
  0
LWPOLYLINE
  5
3C
100
AcDbEntity
  8
LAYER22
370
    18
390
0
  6
Continuous
 62
     1
100
AcDbPolyline
 90
        4
 70
     1
 10
-300.0
 20
-1695.0
 10
-300.0
 20
933.0
 10
-270.0
 20
933.0
 10
-270.0
 20
-1695.0
  0
LWPOLYLINE
  5
3D
100
AcDbEntity
  8
LAYER22
370
    13
390
0
  6
DASHDOT
 62
     5
100
AcDbPolyline
 90
        2
 70
     0
 10
-195.0
 20
985.0
 10
-195.0
 20
-1695.0
  0
LWPOLYLINE
  5
3E
100
AcDbEntity
  8
LAYER22
370
    25
390
0
  6
Continuous
 62
     2
100
AcDbPolyline
 90
       16
 70
     1
 10
368.4198
 20
618.095398
 10
498.322205
 20
693.097839
 10
500.822296
 20
688.767761
 10
494.760162
 20
685.267639
 10
494.214264
 20
686.213135
 42
1.0
 10
496.290497
 20
682.617188
 10
495.760193
 20
683.535583
 10
501.822327
 20
687.035706
 10
504.322388
 20
682.705627
 10
374.419983
 20
607.703247
 10
371.919891
 20
612.033325
 10
377.919434
 20
615.497253
 10
378.449738
 20
614.578857
 42
1.035421
 10
376.373474
 20
618.174805
 10
376.919403
 20
617.229309
 10
370.919861
 20
613.76532
  0
LWPOLYLINE
  5
3F
100
AcDbEntity
  8
LAYER22
370
    25
390
0
  6
Continuous
 62
     2
100
AcDbPolyline
 90
       22
 70
     0
 10
512.375122
 20
690.95813
 10
507.551392
 20
690.958069
 10
495.491455
 20
683.995422
 10
496.271729
 20
682.643738
 42
-1.0
 10
494.21109
 20
686.213135
 10
494.991425
 20
684.861389
 10
504.23941
 20
690.200439
 10
497.996674
 20
692.583008
 10
498.352631
 20
693.51709
 10
505.355591
 20
690.844971
 10
506.917603
 20
691.746826
 10
506.983948
 20
695.639404
 10
504.898956
 20
697.054382
 10
504.899414
 20
699.007385
 10
505.395996
 20
699.507385
 10
512.375
 20
699.507324
 10
512.375
 20
698.507385
 10
505.899414
 20
698.507446
 10
505.865265
 20
697.515869
 10
507.917542
 20
695.889282
 10
507.917603
 20
691.95813
 10
512.375122
 20
691.958069
  0
LWPOLYLINE
  5
40
100
AcDbEntity
  8
LAYER22
370
    25
390
0
  6
Continuous
 62
     2
100
AcDbPolyline
 90
       22
 70
     0
 10
512.375122
 20
690.95813
 10
517.198853
 20
690.958252
 10
529.259033
 20
683.996338
 10
528.47876
 20
682.644592
 42
1.0
 10
530.539673
 20
686.213989
 10
529.759033
 20
684.862183
 10
520.511353
 20
690.200867
 10
526.75354
 20
692.583618
 10
526.397034
 20
693.517761
 10
519.395142
 20
690.845398
 10
517.832642
 20
691.746948
 10
517.765686
 20
695.639587
 10
519.850647
 20
697.054749
 10
519.850586
 20
699.00769
 10
519.353516
 20
699.507629
 10
512.375
 20
699.507324
 10
512.375
 20
698.507385
 10
518.850586
 20
698.507874
 10
518.884766
 20
697.516235
 10
516.832581
 20
695.889648
 10
516.832642
 20
691.958313
 10
512.375122
 20
691.958069
  0
LWPOLYLINE
  5
41
100
AcDbEntity
  8
LAYER22
370
    25
390
0
  6
Continuous
 62
     2
100
AcDbPolyline
 90
       22
 70
     0
 10
360.331909
 20
609.896362
 10
365.15564
 20
609.896423
 10
377.215576
 20
616.85907
 10
376.435303
 20
618.210754
 42
-1.0
 10
378.495941
 20
614.641357
 10
377.715607
 20
615.993103
 10
368.467621
 20
610.654053
 10
374.710358
 20
608.271484
 10
374.354401
 20
607.337402
 10
367.35144
 20
610.009521
 10
365.789429
 20
609.107666
 10
365.723083
 20
605.215088
 10
367.808075
 20
603.80011
 10
367.807617
 20
601.847107
 10
367.311035
 20
601.347107
 10
360.332031
 20
601.347168
 10
360.332031
 20
602.347107
 10
366.807617
 20
602.347046
 10
366.841766
 20
603.338623
 10
364.78949
 20
604.96521
 10
364.789429
 20
608.896362
 10
360.331909
 20
608.896423
  0
LWPOLYLINE
  5
42
100
AcDbEntity
  8
LAYER22
370
    25
390
0
  6
Continuous
 62
     2
100
AcDbPolyline
 90
       22
 70
     0
 10
360.331909
 20
609.896362
 10
355.508179
 20
609.89624
 10
343.447998
 20
616.858154
 10
344.228271
 20
618.2099
 42
1.0
 10
342.167358
 20
614.640503
 10
342.948029
 20
615.99231
 10
352.195648
 20
610.653625
 10
345.953522
 20
608.270874
 10
346.309967
 20
607.336731
 10
353.31189
 20
610.009094
 10
354.87439
 20
609.107544
 10
354.941345
 20
605.214905
 10
352.856415
 20
603.799744
 10
352.856445
 20
601.846802
 10
353.353516
 20
601.346863
 10
360.332031
 20
601.347168
 10
360.332031
 20
602.347107
 10
353.856445
 20
602.346619
 10
353.822235
 20
603.338257
 10
355.874451
 20
604.964844
 10
355.87439
 20
608.896179
 10
360.331909
 20
608.896423
  0
LWPOLYLINE
  5
43
100
AcDbEntity
  8
LAYER22
370
    25
390
0
  6
Continuous
 62
     2
100
AcDbPolyline
 90
       11
 70
     0
 10
280.588379
 20
651.901367
 10
287.169922
 20
649.397827
 10
297.54541
 20
643.349121
 10
298.325684
 20
644.700806
 42
-1.0
 10
296.264984
 20
641.130737
 10
297.04541
 20
642.483154
 10
287.797852
 20
647.821899
 10
288.855957
 20
641.224731
 10
287.868652
 20
641.066284
 10
286.681641
 20
648.466187
 10
280.220703
 20
650.971313
  0
LWPOLYLINE
  5
44
100
AcDbEntity
  8
LAYER22
370
    25
390
0
  6
Continuous
 62
     2
100
AcDbPolyline
 90
       11
 70
     0
 10
280.588379
 20
651.901367
 10
276.250488
 20
653.240234
 10
276.250488
 20
664.414063
 10
277.811035
 20
664.414185
 42
1.0
 10
273.689941
 20
664.414429
 10
275.250488
 20
664.414185
 10
275.250488
 20
653.736206
 10
270.065918
 20
657.950928
 10
269.435059
 20
657.175171
 10
275.250488
 20
652.447266
 10
280.220703
 20
650.971313
  0
LWPOLYLINE
  5
45
100
AcDbEntity
  8
LAYER22
370
    18
390
0
  6
Continuous
 62
     1
100
AcDbPolyline
 90
        6
 70
     1
 10
281.765625
 20
690.493164
 10
281.765625
 20
680.495117
 10
278.765625
 20
683.452148
 10
268.765625
 20
683.452148
 10
268.765625
 20
687.452148
 10
278.765625
 20
687.452148
  0
LWPOLYLINE
  5
46
100
AcDbEntity
  8
LAYER22
370
    18
390
0
  6
Continuous
 62
     1
100
AcDbPolyline
 90
        2
 70
     0
 10
278.765625
 20
683.452148
 10
278.765625
 20
687.452148
  0
LWPOLYLINE
  5
47
100
AcDbEntity
  8
LAYER22
370
    18
390
0
  6
Continuous
 62
     1
100
AcDbPolyline
 90
       22
 70
     0
 10
268.765625
 20
683.452148
 10
266.515625
 20
687.302246
 10
264.375
 20
683.744873
 10
262.085205
 20
687.006836
 10
259.633301
 20
684.061035
 10
257.334473
 20
686.690186
 10
255.010742
 20
684.369141
 10
252.785156
 20
686.386963
 10
250.740479
 20
684.654053
 10
248.91333
 20
686.128662
 10
247.289551
 20
684.884033
 10
246.171631
 20
685.946045
 10
245.088135
 20
685.030762
 10
244.043457
 20
685.803955
 10
243.075439
 20
685.164795
 10
242.33374
 20
685.690186
 10
241.453125
 20
685.273193
 10
240.9021
 20
685.594727
 10
240.529053
 20
685.334717
 10
239.978027
 20
685.532959
 10
239.606445
 20
685.39624
 10
238.775391
 20
685.494141
  0
LWPOLYLINE
  5
48
100
AcDbEntity
  8
LAYER22
370
    25
390
0
  6
Continuous
 62
     2
100
AcDbPolyline
 90
       16
 70
     1
 10
352.253326
 20
618.110229
 10
294.22287
 20
651.598572
 10
291.723755
 20
647.267883
 10
297.786652
 20
643.769165
 10
298.331909
 20
644.71405
 42
-1.0
 10
296.256836
 20
641.118225
 10
296.786987
 20
642.036865
 10
290.724091
 20
645.535645
 10
288.224976
 20
641.205017
 10
346.255432
 20
607.716736
 10
348.754547
 20
612.047363
 10
342.754272
 20
615.51001
 10
342.224182
 20
614.591431
 42
-1.035178
 10
344.299133
 20
618.187073
 10
343.753906
 20
617.242249
 10
349.754211
 20
613.779602
  0
LWPOLYLINE
  5
49
100
AcDbEntity
  8
LAYER22
370
    18
390
0
  6
DASHED
 62
     1
100
AcDbPolyline
 90
        4
 70
     1
 10
424.363281
 20
659.414063
 10
424.363281
 20
665.414063
 10
448.363281
 20
665.414063
 10
448.363281
 20
659.414063
  0
LWPOLYLINE
  5
4A
100
AcDbEntity
  8
LAYER22
370
    18
390
0
  6
DASHED
 62
     1
100
AcDbPolyline
 90
        4
 70
     1
 10
429.863281
 20
659.414063
 10
442.863281
 20
659.414063
 10
442.863281
 20
641.414063
 10
429.863281
 20
641.414063
  0
LWPOLYLINE
  5
4B
100
AcDbEntity
  8
LAYER22
370
    18
390
0
  6
DASHED
 62
     1
100
AcDbPolyline
 90
        4
 70
     1
 10
424.363281
 20
635.414063
 10
424.363281
 20
641.414063
 10
448.363281
 20
641.414063
 10
448.363281
 20
635.414063
  0
CIRCLE
  5
4C
100
AcDbEntity
  8
LAYER22
390
0
  6
Continuous
 62
     1
100
AcDbCircle
 10
436.363281
 20
650.414063
 30
0.0
 40
6.0
  0
CIRCLE
  5
4D
100
AcDbEntity
  8
LAYER22
390
0
  6
Continuous
 62
     1
100
AcDbCircle
 10
436.363281
 20
650.414063
 30
0.0
 40
5.0
  0
LWPOLYLINE
  5
4E
100
AcDbEntity
  8
LAYER22
370
    18
390
0
  6
DASHED
 62
     1
100
AcDbPolyline
 90
        2
 70
     0
 10
433.863281
 20
646.083984
 10
438.863281
 20
654.744263
  0
LWPOLYLINE
  5
4F
100
AcDbEntity
  8
LAYER22
370
    25
390
0
  6
Continuous
 62
     2
100
AcDbPolyline
 90
       16
 70
     1
 10
656.334106
 20
618.095398
 10
526.431702
 20
693.097839
 10
523.931641
 20
688.767761
 10
529.993713
 20
685.267639
 10
530.539673
 20
686.213135
 42
-1.0
 10
528.46344
 20
682.617188
 10
528.993713
 20
683.535583
 10
522.93158
 20
687.035706
 10
520.431519
 20
682.705627
 10
650.333923
 20
607.703247
 10
652.833984
 20
612.033325
 10
646.834473
 20
615.497253
 10
646.304199
 20
614.578857
 42
-1.035421
 10
648.380432
 20
618.174805
 10
647.834534
 20
617.229309
 10
653.834045
 20
613.76532
  0
LWPOLYLINE
  5
50
100
AcDbEntity
  8
LAYER22
370
    25
390
0
  6
Continuous
 62
     2
100
AcDbPolyline
 90
       22
 70
     0
 10
664.421753
 20
609.897339
 10
669.245483
 20
609.8974
 10
681.30542
 20
616.860046
 10
680.525146
 20
618.211731
 42
-1.0
 10
682.585815
 20
614.642334
 10
681.80542
 20
615.99408
 10
672.557495
 20
610.655029
 10
678.800171
 20
608.272461
 10
678.444275
 20
607.338379
 10
671.441284
 20
610.010498
 10
669.879272
 20
609.108643
 10
669.812927
 20
605.216064
 10
671.897888
 20
603.801086
 10
671.897461
 20
601.848083
 10
671.400879
 20
601.348083
 10
664.421875
 20
601.348145
 10
664.421875
 20
602.348083
 10
670.897461
 20
602.348022
 10
670.931641
 20
603.3396
 10
668.879333
 20
604.966187
 10
668.879272
 20
608.897339
 10
664.421753
 20
608.8974
  0
LWPOLYLINE
  5
51
100
AcDbEntity
  8
LAYER22
370
    25
390
0
  6
Continuous
 62
     2
100
AcDbPolyline
 90
       22
 70
     0
 10
664.421753
 20
609.897339
 10
659.598022
 20
609.897217
 10
647.537842
 20
616.859131
 10
648.318115
 20
618.210876
 42
1.0
 10
646.257202
 20
614.641479
 10
647.037842
 20
615.993286
 10
656.285522
 20
610.654602
 10
650.043335
 20
608.271851
 10
650.399841
 20
607.337708
 10
657.401733
 20
610.010071
 10
658.964233
 20
609.108521
 10
659.031189
 20
605.215881
 10
656.946228
 20
603.80072
 10
656.946289
 20
601.847778
 10
657.443359
 20
601.347839
 10
664.421875
 20
601.348145
 10
664.421875
 20
602.348083
 10
657.946289
 20
602.347595
 10
657.912109
 20
603.339233
 10
659.964294
 20
604.96582
 10
659.964233
 20
608.897156
 10
664.421753
 20
608.8974
  0
LWPOLYLINE
  5
52
100
AcDbEntity
  8
LAYER22
370
    25
390
0
  6
Continuous
 62
     2
100
AcDbPolyline
 90
       16
 70
     1
 10
672.759644
 20
617.663269
 10
802.662048
 20
692.66571
 10
805.162109
 20
688.335632
 10
799.100037
 20
684.83551
 10
798.554077
 20
685.781006
 42
1.0
 10
800.63031
 20
682.185059
 10
800.100037
 20
683.103455
 10
806.16217
 20
686.603577
 10
808.662231
 20
682.273499
 10
678.759827
 20
607.271118
 10
676.259766
 20
611.601196
 10
682.259277
 20
615.065125
 10
682.789551
 20
614.146729
 42
1.035421
 10
680.713318
 20
617.742676
 10
681.259216
 20
616.79718
 10
675.259705
 20
613.333191
  0
LWPOLYLINE
  5
53
100
AcDbEntity
  8
LAYER22
370
    18
390
0
  6
DASHED
 62
     1
100
AcDbPolyline
 90
        4
 70
     1
 10
728.703125
 20
658.981934
 10
728.703125
 20
664.981934
 10
752.703125
 20
664.981934
 10
752.703125
 20
658.981934
  0
LWPOLYLINE
  5
54
100
AcDbEntity
  8
LAYER22
370
    18
390
0
  6
DASHED
 62
     1
100
AcDbPolyline
 90
        4
 70
     1
 10
734.203125
 20
658.981934
 10
747.203125
 20
658.981934
 10
747.203125
 20
640.981934
 10
734.203125
 20
640.981934
  0
LWPOLYLINE
  5
55
100
AcDbEntity
  8
LAYER22
370
    18
390
0
  6
DASHED
 62
     1
100
AcDbPolyline
 90
        4
 70
     1
 10
728.703125
 20
634.981934
 10
728.703125
 20
640.981934
 10
752.703125
 20
640.981934
 10
752.703125
 20
634.981934
  0
CIRCLE
  5
56
100
AcDbEntity
  8
LAYER22
390
0
  6
Continuous
 62
     1
100
AcDbCircle
 10
740.703125
 20
649.981934
 30
0.0
 40
6.0
  0
CIRCLE
  5
57
100
AcDbEntity
  8
LAYER22
390
0
  6
Continuous
 62
     1
100
AcDbCircle
 10
740.703125
 20
649.981934
 30
0.0
 40
5.0
  0
LWPOLYLINE
  5
58
100
AcDbEntity
  8
LAYER22
370
    18
390
0
  6
DASHED
 62
     1
100
AcDbPolyline
 90
        2
 70
     0
 10
738.203125
 20
645.651855
 10
743.203125
 20
654.312134
  0
LWPOLYLINE
  5
59
100
AcDbEntity
  8
LAYER22
370
    25
390
0
  6
Continuous
 62
     2
100
AcDbPolyline
 90
       22
 70
     0
 10
816.718872
 20
690.525513
 10
811.895142
 20
690.525452
 10
799.835205
 20
683.562805
 10
800.615479
 20
682.211121
 42
-1.0
 10
798.55481
 20
685.780518
 10
799.335205
 20
684.428772
 10
808.58313
 20
689.767822
 10
802.340454
 20
692.150391
 10
802.69635
 20
693.084473
 10
809.699341
 20
690.412354
 10
811.261353
 20
691.314209
 10
811.327698
 20
695.206787
 10
809.242737
 20
696.621765
 10
809.243164
 20
698.574768
 10
809.739746
 20
699.074768
 10
816.71875
 20
699.074707
 10
816.71875
 20
698.074768
 10
810.243164
 20
698.074829
 10
810.208984
 20
697.083252
 10
812.261292
 20
695.456665
 10
812.261353
 20
691.525513
 10
816.718872
 20
691.525452
  0
LWPOLYLINE
  5
5A
100
AcDbEntity
  8
LAYER22
370
    25
390
0
  6
Continuous
 62
     2
100
AcDbPolyline
 90
       22
 70
     0
 10
816.718872
 20
690.525513
 10
821.542603
 20
690.525635
 10
833.602783
 20
683.563721
 10
832.82251
 20
682.211975
 42
1.0
 10
834.883423
 20
685.781372
 10
834.102783
 20
684.429565
 10
824.855103
 20
689.76825
 10
831.09729
 20
692.151001
 10
830.740784
 20
693.085144
 10
823.738892
 20
690.412781
 10
822.176392
 20
691.314331
 10
822.109436
 20
695.20697
 10
824.194397
 20
696.622131
 10
824.194336
 20
698.575073
 10
823.697266
 20
699.075012
 10
816.71875
 20
699.074707
 10
816.71875
 20
698.074768
 10
823.194336
 20
698.075256
 10
823.228516
 20
697.083618
 10
821.176331
 20
695.457031
 10
821.176392
 20
691.525696
 10
816.718872
 20
691.525452
  0
LWPOLYLINE
  5
5B
100
AcDbEntity
  8
LAYER22
370
    25
390
0
  6
Continuous
 62
     2
100
AcDbPolyline
 90
       16
 70
     1
 10
888.809998
 20
659.191284
 10
830.779541
 20
692.679626
 10
828.280396
 20
688.348938
 10
834.343262
 20
684.85022
 10
834.88855
 20
685.795105
 42
-1.0
 10
832.813477
 20
682.19928
 10
833.343628
 20
683.11792
 10
827.280762
 20
686.616699
 10
824.781616
 20
682.286072
 10
882.812073
 20
648.797791
 10
885.311218
 20
653.128418
 10
879.310913
 20
656.591064
 10
878.780823
 20
655.672485
 42
-1.035178
 10
880.855774
 20
659.268127
 10
880.310547
 20
658.323303
 10
886.310852
 20
654.860657
  0
LWPOLYLINE
  5
5C
100
AcDbEntity
  8
LAYER22
370
    18
390
0
  6
Continuous
 62
     1
100
AcDbPolyline
 90
        6
 70
     1
 10
1242.765625
 20
645.399902
 10
1242.765625
 20
655.397949
 10
1245.765625
 20
652.440918
 10
1255.765625
 20
652.440918
 10
1255.765625
 20
648.440918
 10
1245.765625
 20
648.440918
  0
LWPOLYLINE
  5
5D
100
AcDbEntity
  8
LAYER22
370
    18
390
0
  6
Continuous
 62
     1
100
AcDbPolyline
 90
        2
 70
     0
 10
1245.765625
 20
652.440918
 10
1245.765625
 20
648.440918
  0
LWPOLYLINE
  5
5E
100
AcDbEntity
  8
LAYER22
370
    18
390
0
  6
Continuous
 62
     1
100
AcDbPolyline
 90
       22
 70
     0
 10
1255.765625
 20
652.440918
 10
1258.015625
 20
648.59082
 10
1260.15625
 20
652.148193
 10
1262.446045
 20
648.88623
 10
1264.897949
 20
651.832031
 10
1267.196777
 20
649.202881
 10
1269.520508
 20
651.523926
 10
1271.746094
 20
649.506104
 10
1273.790771
 20
651.239014
 10
1275.61792
 20
649.764404
 10
1277.241699
 20
651.009033
 10
1278.359619
 20
649.947021
 10
1279.443115
 20
650.862305
 10
1280.487793
 20
650.089111
 10
1281.455811
 20
650.728271
 10
1282.19751
 20
650.202881
 10
1283.078125
 20
650.619873
 10
1283.62915
 20
650.29834
 10
1284.002197
 20
650.55835
 10
1284.553223
 20
650.360107
 10
1284.924805
 20
650.496826
 10
1285.755859
 20
650.398926
  0
LWPOLYLINE
  5
5F
100
AcDbEntity
  8
LAYER22
370
    25
390
0
  6
Continuous
 62
     2
100
AcDbPolyline
 90
       18
 70
     0
 10
1242.765625
 20
650.398926
 10
1242.765625
 20
657.078125
 42
-0.268065
 10
1244.015625
 20
659.243103
 10
1251.59082
 20
663.616699
 10
1251.84082
 20
664.049805
 10
1251.84082
 20
666.098877
 10
1269.765625
 20
666.098877
 10
1269.765625
 20
664.098877
 10
1267.265625
 20
664.098877
 10
1267.265625
 20
664.69873
 10
1262.091797
 20
664.69873
 10
1262.091797
 20
657.999023
 10
1260.691895
 20
657.999023
 10
1260.691895
 20
664.69873
 10
1253.240723
 20
664.69873
 10
1253.240723
 20
661.79834
 10
1246.265625
 20
657.770996
 10
1246.265625
 20
650.398926
  0
LWPOLYLINE
  5
60
100
AcDbEntity
  8
LAYER22
370
    25
390
0
  6
Continuous
 62
     2
100
AcDbPolyline
 90
       18
 70
     0
 10
1242.765625
 20
650.398926
 10
1242.765625
 20
643.719727
 42
0.268065
 10
1244.015625
 20
641.554749
 10
1251.59082
 20
637.181152
 10
1251.84082
 20
636.748047
 10
1251.84082
 20
634.698975
 10
1269.765625
 20
634.698975
 10
1269.765625
 20
636.698975
 10
1267.265625
 20
636.698975
 10
1267.265625
 20
636.099121
 10
1262.091797
 20
636.099121
 10
1262.091797
 20
642.798828
 10
1260.691895
 20
642.798828
 10
1260.691895
 20
636.099121
 10
1253.240723
 20
636.099121
 10
1253.240723
 20
638.999512
 10
1246.265625
 20
643.026855
 10
1246.265625
 20
650.398926
  0
LWPOLYLINE
  5
61
100
AcDbEntity
  8
LAYER22
370
    25
390
0
  6
Continuous
 62
     2
100
AcDbPolyline
 90
       13
 70
     0
 10
1025.0
 20
650.398926
 10
1025.0
 20
660.221558
 10
1031.083496
 20
663.765991
 42
0.767315
 10
1030.833496
 20
664.698975
 10
1018.024414
 20
664.698975
 10
1018.024414
 20
664.098999
 10
1015.524414
 20
664.098999
 10
1015.524414
 20
666.098999
 10
1035.125488
 20
666.098999
 42
-0.767332
 10
1035.500488
 20
664.699463
 10
1028.049805
 20
660.398071
 42
0.267954
 10
1026.799683
 20
658.23291
 10
1026.799805
 20
650.398926
  0
LWPOLYLINE
  5
62
100
AcDbEntity
  8
LAYER22
370
    25
390
0
  6
Continuous
 62
     2
100
AcDbPolyline
 90
       13
 70
     0
 10
1025.0
 20
650.398926
 10
1025.0
 20
640.576294
 10
1031.083496
 20
637.03186
 42
-0.767315
 10
1030.833496
 20
636.098877
 10
1018.024414
 20
636.098877
 10
1018.024414
 20
636.698853
 10
1015.524414
 20
636.698853
 10
1015.524414
 20
634.698853
 10
1035.125488
 20
634.698853
 42
0.767332
 10
1035.500488
 20
636.098389
 10
1028.049805
 20
640.39978
 42
-0.267954
 10
1026.799683
 20
642.564941
 10
1026.799805
 20
650.398926
  0
LWPOLYLINE
  5
63
100
AcDbEntity
  8
LAYER22
370
    13
390
0
  6
DASHDOT
 62
     5
100
AcDbPolyline
 90
        2
 70
     0
 10
269.765625
 20
650.414063
 10
1269.765625
 20
650.414063
  0
LWPOLYLINE
  5
64
100
AcDbEntity
  8
LAYER22
370
    25
390
0
  6
Continuous
 62
     2
100
AcDbPolyline
 90
       10
 70
     1
 10
900.0
 20
662.898926
 10
1025.0
 20
662.898926
 10
1025.0
 20
637.898926
 10
900.0
 20
637.898926
 10
900.0
 20
649.398926
 10
906.927734
 20
649.398926
 10
906.927734
 20
648.338379
 42
1.035178
 10
906.927734
 20
652.489746
 10
906.927734
 20
651.398926
 10
900.0
 20
651.398926
  0
LWPOLYLINE
  5
65
100
AcDbEntity
  8
LAYER22
370
    25
390
0
  6
Continuous
 62
     2
100
AcDbPolyline
 90
       27
 70
     1
 10
878.782227
 20
655.672607
 42
-1.035231
 10
880.85791
 20
659.268188
 10
880.0625
 20
657.890259
 10
889.30957
 20
652.551392
 10
888.249023
 20
659.148071
 10
889.236328
 20
659.306763
 10
890.42627
 20
651.906738
 10
892.094238
 20
650.847168
 10
897.128906
 20
650.847168
 10
899.182129
 20
662.997437
 10
900.168457
 20
662.830811
 10
898.154785
 20
650.914063
 10
906.929688
 20
650.914063
 10
906.929688
 20
652.48999
 42
-1.035174
 10
906.929688
 20
648.338135
 10
906.929688
 20
649.914063
 10
898.154785
 20
649.914063
 10
900.168457
 20
637.997437
 10
899.182129
 20
637.830811
 10
897.140137
 20
649.914063
 10
891.844238
 20
649.914063
 10
891.594238
 20
649.981201
 10
889.92627
 20
651.040649
 10
882.923828
 20
648.368408
 10
882.567383
 20
649.302612
 10
888.810059
 20
651.685059
 10
879.503906
 20
657.058105
  0
LWPOLYLINE
  5
66
100
AcDbEntity
  8
LAYER22
370
    18
390
0
  6
DASHED
 62
     1
100
AcDbPolyline
 90
        4
 70
     1
 10
918.703125
 20
659.414063
 10
918.703125
 20
665.414063
 10
942.703125
 20
665.414063
 10
942.703125
 20
659.414063
  0
LWPOLYLINE
  5
67
100
AcDbEntity
  8
LAYER22
370
    18
390
0
  6
DASHED
 62
     1
100
AcDbPolyline
 90
        4
 70
     1
 10
924.203125
 20
659.414063
 10
937.203125
 20
659.414063
 10
937.203125
 20
641.414063
 10
924.203125
 20
641.414063
  0
LWPOLYLINE
  5
68
100
AcDbEntity
  8
LAYER22
370
    18
390
0
  6
DASHED
 62
     1
100
AcDbPolyline
 90
        4
 70
     1
 10
918.703125
 20
635.414063
 10
918.703125
 20
641.414063
 10
942.703125
 20
641.414063
 10
942.703125
 20
635.414063
  0
CIRCLE
  5
69
100
AcDbEntity
  8
LAYER22
390
0
  6
Continuous
 62
     1
100
AcDbCircle
 10
930.703125
 20
650.414063
 30
0.0
 40
6.0
  0
CIRCLE
  5
6A
100
AcDbEntity
  8
LAYER22
390
0
  6
Continuous
 62
     1
100
AcDbCircle
 10
930.703125
 20
650.414063
 30
0.0
 40
5.0
  0
LWPOLYLINE
  5
6B
100
AcDbEntity
  8
LAYER22
370
    18
390
0
  6
DASHED
 62
     1
100
AcDbPolyline
 90
        2
 70
     0
 10
928.203125
 20
646.083984
 10
933.203125
 20
654.744263
  0
LWPOLYLINE
  5
6C
100
AcDbEntity
  8
LAYER22
370
    18
390
0
  6
DASHED
 62
     1
100
AcDbPolyline
 90
        4
 70
     1
 10
983.703125
 20
659.414063
 10
983.703125
 20
665.414063
 10
1007.703125
 20
665.414063
 10
1007.703125
 20
659.414063
  0
LWPOLYLINE
  5
6D
100
AcDbEntity
  8
LAYER22
370
    18
390
0
  6
DASHED
 62
     1
100
AcDbPolyline
 90
        4
 70
     1
 10
989.203125
 20
659.414063
 10
1002.203125
 20
659.414063
 10
1002.203125
 20
641.414063
 10
989.203125
 20
641.414063
  0
LWPOLYLINE
  5
6E
100
AcDbEntity
  8
LAYER22
370
    18
390
0
  6
DASHED
 62
     1
100
AcDbPolyline
 90
        4
 70
     1
 10
983.703125
 20
635.414063
 10
983.703125
 20
641.414063
 10
1007.703125
 20
641.414063
 10
1007.703125
 20
635.414063
  0
CIRCLE
  5
6F
100
AcDbEntity
  8
LAYER22
390
0
  6
Continuous
 62
     1
100
AcDbCircle
 10
995.703125
 20
650.414063
 30
0.0
 40
6.0
  0
CIRCLE
  5
70
100
AcDbEntity
  8
LAYER22
390
0
  6
Continuous
 62
     1
100
AcDbCircle
 10
995.703125
 20
650.414063
 30
0.0
 40
5.0
  0
LWPOLYLINE
  5
71
100
AcDbEntity
  8
LAYER22
370
    18
390
0
  6
DASHED
 62
     1
100
AcDbPolyline
 90
        2
 70
     0
 10
993.203125
 20
646.083984
 10
998.203125
 20
654.744263
  0
LWPOLYLINE
  5
72
100
AcDbEntity
  8
LAYER22
370
    25
390
0
  6
Continuous
 62
     2
100
AcDbPolyline
 90
       10
 70
     1
 10
269.765625
 20
657.414063
 10
269.765625
 20
712.414063
 10
281.765625
 20
712.414063
 10
281.765625
 20
657.414063
 10
276.765625
 20
657.414063
 10
276.765625
 20
664.342773
 10
277.826172
 20
664.342773
 42
1.034934
 10
273.674805
 20
664.342773
 10
274.765625
 20
664.342773
 10
274.765625
 20
657.414063
  0
LWPOLYLINE
  5
73
100
AcDbEntity
  8
LAYER22
370
    18
390
0
  6
Continuous
 62
     1
100
AcDbPolyline
 90
        6
 70
     1
 10
281.765625
 20
690.493164
 10
281.765625
 20
680.495117
 10
278.765625
 20
683.452148
 10
268.765625
 20
683.452148
 10
268.765625
 20
687.452148
 10
278.765625
 20
687.452148
  0
LWPOLYLINE
  5
74
100
AcDbEntity
  8
LAYER22
370
    18
390
0
  6
Continuous
 62
     1
100
AcDbPolyline
 90
        2
 70
     0
 10
278.765625
 20
683.452148
 10
278.765625
 20
687.452148
  0
LWPOLYLINE
  5
75
100
AcDbEntity
  8
LAYER22
370
    18
390
0
  6
Continuous
 62
     1
100
AcDbPolyline
 90
       22
 70
     0
 10
268.765625
 20
683.452148
 10
266.515625
 20
687.302246
 10
264.375
 20
683.744873
 10
262.085205
 20
687.006836
 10
259.633301
 20
684.061035
 10
257.334473
 20
686.690186
 10
255.010742
 20
684.369141
 10
252.785156
 20
686.386963
 10
250.740479
 20
684.654053
 10
248.91333
 20
686.128662
 10
247.289551
 20
684.884033
 10
246.171631
 20
685.946045
 10
245.088135
 20
685.030762
 10
244.043457
 20
685.803955
 10
243.075439
 20
685.164795
 10
242.33374
 20
685.690186
 10
241.453125
 20
685.273193
 10
240.9021
 20
685.594727
 10
240.529053
 20
685.334717
 10
239.978027
 20
685.532959
 10
239.606445
 20
685.39624
 10
238.775391
 20
685.494141
  0
LWPOLYLINE
  5
76
100
AcDbEntity
  8
LAYER22
370
    18
390
0
  6
DASHED
 62
     1
100
AcDbPolyline
 90
        4
 70
     1
 10
275.75
 20
492.414063
 10
275.75
 20
498.414063
 10
299.75
 20
498.414063
 10
299.75
 20
492.414063
  0
LWPOLYLINE
  5
77
100
AcDbEntity
  8
LAYER22
370
    18
390
0
  6
DASHED
 62
     1
100
AcDbPolyline
 90
        4
 70
     1
 10
281.25
 20
492.414063
 10
294.25
 20
492.414063
 10
294.25
 20
474.414063
 10
281.25
 20
474.414063
  0
LWPOLYLINE
  5
78
100
AcDbEntity
  8
LAYER22
370
    18
390
0
  6
DASHED
 62
     1
100
AcDbPolyline
 90
        4
 70
     1
 10
275.75
 20
468.414063
 10
275.75
 20
474.414063
 10
299.75
 20
474.414063
 10
299.75
 20
468.414063
  0
CIRCLE
  5
79
100
AcDbEntity
  8
LAYER22
390
0
  6
Continuous
 62
     1
100
AcDbCircle
 10
287.75
 20
483.414063
 30
0.0
 40
6.0
  0
CIRCLE
  5
7A
100
AcDbEntity
  8
LAYER22
390
0
  6
Continuous
 62
     1
100
AcDbCircle
 10
287.75
 20
483.414063
 30
0.0
 40
5.0
  0
LWPOLYLINE
  5
7B
100
AcDbEntity
  8
LAYER22
370
    18
390
0
  6
DASHED
 62
     1
100
AcDbPolyline
 90
        2
 70
     0
 10
285.25
 20
479.083984
 10
290.25
 20
487.744263
  0
LWPOLYLINE
  5
7C
100
AcDbEntity
  8
LAYER22
370
    18
390
0
  6
Continuous
 62
     1
100
AcDbPolyline
 90
        6
 70
     1
 10
1242.765625
 20
478.399902
 10
1242.765625
 20
488.397949
 10
1245.765625
 20
485.440918
 10
1255.765625
 20
485.440918
 10
1255.765625
 20
481.440918
 10
1245.765625
 20
481.440918
  0
LWPOLYLINE
  5
7D
100
AcDbEntity
  8
LAYER22
370
    18
390
0
  6
Continuous
 62
     1
100
AcDbPolyline
 90
        2
 70
     0
 10
1245.765625
 20
485.440918
 10
1245.765625
 20
481.440918
  0
LWPOLYLINE
  5
7E
100
AcDbEntity
  8
LAYER22
370
    18
390
0
  6
Continuous
 62
     1
100
AcDbPolyline
 90
       22
 70
     0
 10
1255.765625
 20
485.440918
 10
1258.015625
 20
481.59082
 10
1260.15625
 20
485.148193
 10
1262.446045
 20
481.88623
 10
1264.897949
 20
484.832031
 10
1267.196777
 20
482.202881
 10
1269.520508
 20
484.523926
 10
1271.746094
 20
482.506104
 10
1273.790771
 20
484.239014
 10
1275.61792
 20
482.764404
 10
1277.241699
 20
484.009033
 10
1278.359619
 20
482.947021
 10
1279.443115
 20
483.862305
 10
1280.487793
 20
483.089111
 10
1281.455811
 20
483.728271
 10
1282.19751
 20
483.202881
 10
1283.078125
 20
483.619873
 10
1283.62915
 20
483.29834
 10
1284.002197
 20
483.55835
 10
1284.553223
 20
483.360107
 10
1284.924805
 20
483.496826
 10
1285.755859
 20
483.398926
  0
LWPOLYLINE
  5
7F
100
AcDbEntity
  8
LAYER22
370
    25
390
0
  6
Continuous
 62
     2
100
AcDbPolyline
 90
       18
 70
     0
 10
1242.765625
 20
483.398926
 10
1242.765625
 20
490.078125
 42
-0.268065
 10
1244.015625
 20
492.243134
 10
1251.59082
 20
496.616699
 10
1251.84082
 20
497.049805
 10
1251.84082
 20
499.098877
 10
1269.765625
 20
499.098877
 10
1269.765625
 20
497.098877
 10
1267.265625
 20
497.098877
 10
1267.265625
 20
497.69873
 10
1262.091797
 20
497.69873
 10
1262.091797
 20
490.999023
 10
1260.691895
 20
490.999023
 10
1260.691895
 20
497.69873
 10
1253.240723
 20
497.69873
 10
1253.240723
 20
494.79834
 10
1246.265625
 20
490.770996
 10
1246.265625
 20
483.398926
  0
LWPOLYLINE
  5
80
100
AcDbEntity
  8
LAYER22
370
    25
390
0
  6
Continuous
 62
     2
100
AcDbPolyline
 90
       18
 70
     0
 10
1242.765625
 20
483.398926
 10
1242.765625
 20
476.719727
 42
0.268065
 10
1244.015625
 20
474.554718
 10
1251.59082
 20
470.181152
 10
1251.84082
 20
469.748047
 10
1251.84082
 20
467.698975
 10
1269.765625
 20
467.698975
 10
1269.765625
 20
469.698975
 10
1267.265625
 20
469.698975
 10
1267.265625
 20
469.099121
 10
1262.091797
 20
469.099121
 10
1262.091797
 20
475.798828
 10
1260.691895
 20
475.798828
 10
1260.691895
 20
469.099121
 10
1253.240723
 20
469.099121
 10
1253.240723
 20
471.999512
 10
1246.265625
 20
476.026855
 10
1246.265625
 20
483.398926
  0
LWPOLYLINE
  5
81
100
AcDbEntity
  8
LAYER22
370
    25
390
0
  6
Continuous
 62
     2
100
AcDbPolyline
 90
       13
 70
     0
 10
457.0
 20
483.398926
 10
457.0
 20
493.221558
 10
463.083496
 20
496.765991
 42
0.767315
 10
462.833496
 20
497.698944
 10
450.024414
 20
497.698975
 10
450.024414
 20
497.098999
 10
447.524414
 20
497.098999
 10
447.524414
 20
499.098999
 10
467.125488
 20
499.098999
 42
-0.767332
 10
467.500488
 20
497.699463
 10
460.049805
 20
493.398071
 42
0.267954
 10
458.799713
 20
491.23291
 10
458.799805
 20
483.398926
  0
LWPOLYLINE
  5
82
100
AcDbEntity
  8
LAYER22
370
    25
390
0
  6
Continuous
 62
     2
100
AcDbPolyline
 90
       13
 70
     0
 10
457.0
 20
483.398926
 10
457.0
 20
473.576294
 10
463.083496
 20
470.03186
 42
-0.767315
 10
462.833496
 20
469.098907
 10
450.024414
 20
469.098877
 10
450.024414
 20
469.698853
 10
447.524414
 20
469.698853
 10
447.524414
 20
467.698853
 10
467.125488
 20
467.698853
 42
0.767332
 10
467.500488
 20
469.098389
 10
460.049805
 20
473.39978
 42
-0.267954
 10
458.799713
 20
475.564941
 10
458.799805
 20
483.398926
  0
LWPOLYLINE
  5
83
100
AcDbEntity
  8
LAYER22
370
    13
390
0
  6
DASHDOT
 62
     5
100
AcDbPolyline
 90
        2
 70
     0
 10
269.765625
 20
483.414063
 10
1269.765625
 20
483.414063
  0
LWPOLYLINE
  5
84
100
AcDbEntity
  8
LAYER22
370
    25
390
0
  6
Continuous
 62
     2
100
AcDbPolyline
 90
       10
 70
     1
 10
332.0
 20
495.898926
 10
457.0
 20
495.898926
 10
457.0
 20
470.898926
 10
332.0
 20
470.898926
 10
332.0
 20
482.398926
 10
338.927734
 20
482.398926
 10
338.927734
 20
481.338379
 42
1.035178
 10
338.927734
 20
485.489746
 10
338.927734
 20
484.398926
 10
332.0
 20
484.398926
  0
LWPOLYLINE
  5
85
100
AcDbEntity
  8
LAYER22
370
    18
390
0
  6
DASHED
 62
     1
100
AcDbPolyline
 90
        4
 70
     1
 10
350.703125
 20
492.414063
 10
350.703125
 20
498.414063
 10
374.703125
 20
498.414063
 10
374.703125
 20
492.414063
  0
LWPOLYLINE
  5
86
100
AcDbEntity
  8
LAYER22
370
    18
390
0
  6
DASHED
 62
     1
100
AcDbPolyline
 90
        4
 70
     1
 10
356.203125
 20
492.414063
 10
369.203125
 20
492.414063
 10
369.203125
 20
474.414063
 10
356.203125
 20
474.414063
  0
LWPOLYLINE
  5
87
100
AcDbEntity
  8
LAYER22
370
    18
390
0
  6
DASHED
 62
     1
100
AcDbPolyline
 90
        4
 70
     1
 10
350.703125
 20
468.414063
 10
350.703125
 20
474.414063
 10
374.703125
 20
474.414063
 10
374.703125
 20
468.414063
  0
CIRCLE
  5
88
100
AcDbEntity
  8
LAYER22
390
0
  6
Continuous
 62
     1
100
AcDbCircle
 10
362.703125
 20
483.414063
 30
0.0
 40
6.0
  0
CIRCLE
  5
89
100
AcDbEntity
  8
LAYER22
390
0
  6
Continuous
 62
     1
100
AcDbCircle
 10
362.703125
 20
483.414063
 30
0.0
 40
5.0
  0
LWPOLYLINE
  5
8A
100
AcDbEntity
  8
LAYER22
370
    18
390
0
  6
DASHED
 62
     1
100
AcDbPolyline
 90
        2
 70
     0
 10
360.203125
 20
479.083984
 10
365.203125
 20
487.744263
  0
LWPOLYLINE
  5
8B
100
AcDbEntity
  8
LAYER22
370
    18
390
0
  6
DASHED
 62
     1
100
AcDbPolyline
 90
        4
 70
     1
 10
415.703125
 20
492.414063
 10
415.703125
 20
498.414063
 10
439.703125
 20
498.414063
 10
439.703125
 20
492.414063
  0
LWPOLYLINE
  5
8C
100
AcDbEntity
  8
LAYER22
370
    18
390
0
  6
DASHED
 62
     1
100
AcDbPolyline
 90
        4
 70
     1
 10
421.203125
 20
492.414063
 10
434.203125
 20
492.414063
 10
434.203125
 20
474.414063
 10
421.203125
 20
474.414063
  0
LWPOLYLINE
  5
8D
100
AcDbEntity
  8
LAYER22
370
    18
390
0
  6
DASHED
 62
     1
100
AcDbPolyline
 90
        4
 70
     1
 10
415.703125
 20
468.414063
 10
415.703125
 20
474.414063
 10
439.703125
 20
474.414063
 10
439.703125
 20
468.414063
  0
CIRCLE
  5
8E
100
AcDbEntity
  8
LAYER22
390
0
  6
Continuous
 62
     1
100
AcDbCircle
 10
427.703125
 20
483.414063
 30
0.0
 40
6.0
  0
CIRCLE
  5
8F
100
AcDbEntity
  8
LAYER22
390
0
  6
Continuous
 62
     1
100
AcDbCircle
 10
427.703125
 20
483.414063
 30
0.0
 40
5.0
  0
LWPOLYLINE
  5
90
100
AcDbEntity
  8
LAYER22
370
    18
390
0
  6
DASHED
 62
     1
100
AcDbPolyline
 90
        2
 70
     0
 10
425.203125
 20
479.083984
 10
430.203125
 20
487.744263
  0
LWPOLYLINE
  5
91
100
AcDbEntity
  8
LAYER22
370
    25
390
0
  6
Continuous
 62
     2
100
AcDbPolyline
 90
       21
 70
     0
 10
293.794922
 20
562.091797
 10
288.28125
 20
562.091797
 10
288.28125
 20
551.414063
 10
289.841797
 20
551.413574
 42
-0.999763
 10
285.720703
 20
551.413574
 10
287.28125
 20
551.413574
 10
287.28125
 20
561.364746
 10
281.782227
 20
558.264893
 10
281.151367
 20
559.040771
 10
288.329102
 20
563.380859
 10
288.329102
 20
567.046143
 10
286.304688
 20
568.461182
 10
286.305664
 20
570.414063
 10
286.802734
 20
570.914063
 10
293.78125
 20
570.914063
 10
293.78125
 20
569.914063
 10
287.271484
 20
569.914063
 10
287.271484
 20
568.922607
 10
289.414063
 20
567.224365
 10
289.414063
 20
563.380859
 10
293.794922
 20
563.380859
  0
LWPOLYLINE
  5
92
100
AcDbEntity
  8
LAYER22
370
    25
390
0
  6
Continuous
 62
     2
100
AcDbPolyline
 90
       21
 70
     0
 10
293.767578
 20
562.091797
 10
299.28125
 20
562.091797
 10
299.28125
 20
551.414063
 10
297.720703
 20
551.413574
 42
0.999763
 10
301.841797
 20
551.413574
 10
300.28125
 20
551.413574
 10
300.28125
 20
561.364746
 10
305.780273
 20
558.264893
 10
306.411133
 20
559.040771
 10
299.233398
 20
563.380859
 10
299.233398
 20
567.046143
 10
301.257813
 20
568.461182
 10
301.256836
 20
570.414063
 10
300.759766
 20
570.914063
 10
293.78125
 20
570.914063
 10
293.78125
 20
569.914063
 10
300.291016
 20
569.914063
 10
300.291016
 20
568.922607
 10
298.148438
 20
567.224365
 10
298.148438
 20
563.380859
 10
293.767578
 20
563.380859
  0
LWPOLYLINE
  5
93
100
AcDbEntity
  8
LAYER22
370
    25
390
0
  6
Continuous
 62
     2
100
AcDbPolyline
 90
       16
 70
     1
 10
281.765625
 20
408.414063
 10
281.765625
 20
558.414063
 10
286.765625
 20
558.414063
 10
286.765625
 20
551.414063
 10
285.673828
 20
551.414063
 42
1.0
 10
289.826172
 20
551.414063
 10
288.765625
 20
551.414063
 10
288.765625
 20
558.414063
 10
293.765625
 20
558.414063
 10
293.765625
 20
408.414063
 10
288.765625
 20
408.414063
 10
288.765625
 20
415.341797
 10
289.826172
 20
415.341797
 42
1.035421
 10
285.673828
 20
415.341797
 10
286.765625
 20
415.341797
 10
286.765625
 20
408.414063
  0
LWPOLYLINE
  5
94
100
AcDbEntity
  8
LAYER22
370
    25
390
0
  6
Continuous
 62
     2
100
AcDbPolyline
 90
       21
 70
     0
 10
305.794922
 20
404.736328
 10
300.28125
 20
404.736328
 10
300.28125
 20
415.414063
 10
301.841797
 20
415.414551
 42
0.999763
 10
297.720703
 20
415.414551
 10
299.28125
 20
415.414551
 10
299.28125
 20
405.463379
 10
293.782227
 20
408.563232
 10
293.151367
 20
407.787354
 10
300.329102
 20
403.447266
 10
300.329102
 20
399.781982
 10
298.304688
 20
398.366943
 10
298.305664
 20
396.414063
 10
298.802734
 20
395.914063
 10
305.78125
 20
395.914063
 10
305.78125
 20
396.914063
 10
299.271484
 20
396.914063
 10
299.271484
 20
397.905518
 10
301.414063
 20
399.60376
 10
301.414063
 20
403.447266
 10
305.794922
 20
403.447266
  0
LWPOLYLINE
  5
95
100
AcDbEntity
  8
LAYER22
370
    25
390
0
  6
Continuous
 62
     2
100
AcDbPolyline
 90
       21
 70
     0
 10
305.767578
 20
404.736328
 10
311.28125
 20
404.736328
 10
311.28125
 20
415.414063
 10
309.720703
 20
415.414551
 42
-0.999763
 10
313.841797
 20
415.414551
 10
312.28125
 20
415.414551
 10
312.28125
 20
405.463379
 10
317.780273
 20
408.563232
 10
318.411133
 20
407.787354
 10
311.233398
 20
403.447266
 10
311.233398
 20
399.781982
 10
313.257813
 20
398.366943
 10
313.256836
 20
396.414063
 10
312.759766
 20
395.914063
 10
305.78125
 20
395.914063
 10
305.78125
 20
396.914063
 10
312.291016
 20
396.914063
 10
312.291016
 20
397.905518
 10
310.148438
 20
399.60376
 10
310.148438
 20
403.447266
 10
305.767578
 20
403.447266
  0
LWPOLYLINE
  5
96
100
AcDbEntity
  8
LAYER22
370
    25
390
0
  6
Continuous
 62
     2
100
AcDbPolyline
 90
       16
 70
     1
 10
293.765625
 20
408.414063
 10
293.765625
 20
558.414063
 10
298.765625
 20
558.414063
 10
298.765625
 20
551.414063
 10
297.673828
 20
551.414063
 42
1.0
 10
301.826172
 20
551.414063
 10
300.765625
 20
551.414063
 10
300.765625
 20
558.414063
 10
305.765625
 20
558.414063
 10
305.765625
 20
408.414063
 10
300.765625
 20
408.414063
 10
300.765625
 20
415.341797
 10
301.826172
 20
415.341797
 42
1.035421
 10
297.673828
 20
415.341797
 10
298.765625
 20
415.341797
 10
298.765625
 20
408.414063
  0
LWPOLYLINE
  5
97
100
AcDbEntity
  8
LAYER22
370
    18
390
0
  6
DASHED
 62
     1
100
AcDbPolyline
 90
        4
 70
     1
 10
299.75
 20
492.414063
 10
299.75
 20
498.414063
 10
323.75
 20
498.414063
 10
323.75
 20
492.414063
  0
LWPOLYLINE
  5
98
100
AcDbEntity
  8
LAYER22
370
    18
390
0
  6
DASHED
 62
     1
100
AcDbPolyline
 90
        4
 70
     1
 10
305.25
 20
492.414063
 10
318.25
 20
492.414063
 10
318.25
 20
474.414063
 10
305.25
 20
474.414063
  0
LWPOLYLINE
  5
99
100
AcDbEntity
  8
LAYER22
370
    18
390
0
  6
DASHED
 62
     1
100
AcDbPolyline
 90
        4
 70
     1
 10
299.75
 20
468.414063
 10
299.75
 20
474.414063
 10
323.75
 20
474.414063
 10
323.75
 20
468.414063
  0
CIRCLE
  5
9A
100
AcDbEntity
  8
LAYER22
390
0
  6
Continuous
 62
     1
100
AcDbCircle
 10
311.75
 20
483.414063
 30
0.0
 40
6.0
  0
CIRCLE
  5
9B
100
AcDbEntity
  8
LAYER22
390
0
  6
Continuous
 62
     1
100
AcDbCircle
 10
311.75
 20
483.414063
 30
0.0
 40
5.0
  0
LWPOLYLINE
  5
9C
100
AcDbEntity
  8
LAYER22
370
    18
390
0
  6
DASHED
 62
     1
100
AcDbPolyline
 90
        2
 70
     0
 10
309.25
 20
479.083984
 10
314.25
 20
487.744263
  0
LWPOLYLINE
  5
9D
100
AcDbEntity
  8
LAYER22
370
    25
390
0
  6
Continuous
 62
     2
100
AcDbPolyline
 90
       16
 70
     1
 10
305.765625
 20
408.414063
 10
305.765625
 20
558.414063
 10
310.765625
 20
558.414063
 10
310.765625
 20
551.414063
 10
309.673828
 20
551.414063
 42
1.0
 10
313.826172
 20
551.414063
 10
312.765625
 20
551.414063
 10
312.765625
 20
558.414063
 10
317.765625
 20
558.414063
 10
317.765625
 20
408.414063
 10
312.765625
 20
408.414063
 10
312.765625
 20
415.341797
 10
313.826172
 20
415.341797
 42
1.035421
 10
309.673828
 20
415.341797
 10
310.765625
 20
415.341797
 10
310.765625
 20
408.414063
  0
LWPOLYLINE
  5
9E
100
AcDbEntity
  8
LAYER22
370
    25
390
0
  6
Continuous
 62
     2
100
AcDbPolyline
 90
       16
 70
     1
 10
317.765625
 20
491.414063
 10
317.765625
 20
558.414063
 10
322.765625
 20
558.414063
 10
322.765625
 20
551.414063
 10
321.674683
 20
551.414063
 42
1.0
 10
325.826294
 20
551.414063
 10
324.765625
 20
551.414063
 10
324.765625
 20
558.414063
 10
329.765625
 20
558.414063
 10
329.765625
 20
491.414063
 10
324.765625
 20
491.414063
 10
324.765625
 20
498.341797
 10
325.826172
 20
498.341797
 42
1.035178
 10
321.674805
 20
498.341797
 10
322.765625
 20
498.341797
 10
322.765625
 20
491.414063
  0
LWPOLYLINE
  5
9F
100
AcDbEntity
  8
LAYER22
370
    25
390
0
  6
Continuous
 62
     2
100
AcDbPolyline
 90
       21
 70
     0
 10
317.794922
 20
562.091797
 10
312.28125
 20
562.091797
 10
312.28125
 20
551.414063
 10
313.841797
 20
551.413574
 42
-0.999763
 10
309.720703
 20
551.413574
 10
311.28125
 20
551.413574
 10
311.28125
 20
561.364746
 10
305.782227
 20
558.264893
 10
305.151367
 20
559.040771
 10
312.329102
 20
563.380859
 10
312.329102
 20
567.046143
 10
310.304688
 20
568.461182
 10
310.305664
 20
570.414063
 10
310.802734
 20
570.914063
 10
317.78125
 20
570.914063
 10
317.78125
 20
569.914063
 10
311.271484
 20
569.914063
 10
311.271484
 20
568.922607
 10
313.414063
 20
567.224365
 10
313.414063
 20
563.380859
 10
317.794922
 20
563.380859
  0
LWPOLYLINE
  5
A0
100
AcDbEntity
  8
LAYER22
370
    25
390
0
  6
Continuous
 62
     2
100
AcDbPolyline
 90
       21
 70
     0
 10
317.767578
 20
562.091797
 10
323.28125
 20
562.091797
 10
323.28125
 20
551.414063
 10
321.720703
 20
551.413574
 42
0.999763
 10
325.841797
 20
551.413574
 10
324.28125
 20
551.413574
 10
324.28125
 20
561.364746
 10
329.780273
 20
558.264893
 10
330.411133
 20
559.040771
 10
323.233398
 20
563.380859
 10
323.233398
 20
567.046143
 10
325.257813
 20
568.461182
 10
325.256836
 20
570.414063
 10
324.759766
 20
570.914063
 10
317.78125
 20
570.914063
 10
317.78125
 20
569.914063
 10
324.291016
 20
569.914063
 10
324.291016
 20
568.922607
 10
322.148438
 20
567.224365
 10
322.148438
 20
563.380859
 10
317.767578
 20
563.380859
  0
LWPOLYLINE
  5
A1
100
AcDbEntity
  8
LAYER22
370
    25
390
0
  6
Continuous
 62
     2
100
AcDbPolyline
 90
       16
 70
     1
 10
269.765625
 20
408.414063
 10
269.765625
 20
475.414063
 10
274.765625
 20
475.414063
 10
274.765625
 20
468.414063
 10
273.674683
 20
468.414063
 42
1.0
 10
277.826294
 20
468.414063
 10
276.765625
 20
468.414063
 10
276.765625
 20
475.414063
 10
281.765625
 20
475.414063
 10
281.765625
 20
408.414063
 10
276.765625
 20
408.414063
 10
276.765625
 20
415.341797
 10
277.826172
 20
415.341797
 42
1.035178
 10
273.674805
 20
415.341797
 10
274.765625
 20
415.341797
 10
274.765625
 20
408.414063
  0
LWPOLYLINE
  5
A2
100
AcDbEntity
  8
LAYER22
370
    25
390
0
  6
Continuous
 62
     2
100
AcDbPolyline
 90
       21
 70
     0
 10
281.779297
 20
404.736328
 10
276.265625
 20
404.736328
 10
276.265625
 20
415.414063
 10
277.826172
 20
415.414551
 42
0.999763
 10
273.705078
 20
415.414551
 10
275.265625
 20
415.414551
 10
275.265625
 20
405.463379
 10
269.766602
 20
408.563232
 10
269.135742
 20
407.787354
 10
276.313477
 20
403.447266
 10
276.313477
 20
399.781982
 10
274.289063
 20
398.366943
 10
274.290039
 20
396.414063
 10
274.787109
 20
395.914063
 10
281.765625
 20
395.914063
 10
281.765625
 20
396.914063
 10
275.255859
 20
396.914063
 10
275.255859
 20
397.905518
 10
277.398438
 20
399.60376
 10
277.398438
 20
403.447266
 10
281.779297
 20
403.447266
  0
LWPOLYLINE
  5
A3
100
AcDbEntity
  8
LAYER22
370
    25
390
0
  6
Continuous
 62
     2
100
AcDbPolyline
 90
       21
 70
     0
 10
281.751953
 20
404.736328
 10
287.265625
 20
404.736328
 10
287.265625
 20
415.414063
 10
285.705078
 20
415.414551
 42
-0.999763
 10
289.826172
 20
415.414551
 10
288.265625
 20
415.414551
 10
288.265625
 20
405.463379
 10
293.764648
 20
408.563232
 10
294.395508
 20
407.787354
 10
287.217773
 20
403.447266
 10
287.217773
 20
399.781982
 10
289.242188
 20
398.366943
 10
289.241211
 20
396.414063
 10
288.744141
 20
395.914063
 10
281.765625
 20
395.914063
 10
281.765625
 20
396.914063
 10
288.275391
 20
396.914063
 10
288.275391
 20
397.905518
 10
286.132813
 20
399.60376
 10
286.132813
 20
403.447266
 10
281.751953
 20
403.447266
  0
LWPOLYLINE
  5
A4
100
AcDbEntity
  8
LAYER22
370
    25
390
0
  6
Continuous
 62
     2
100
AcDbPolyline
 90
       14
 70
     1
 10
324.234375
 20
483.846924
 10
329.12793
 20
483.846924
 10
331.181641
 20
495.997314
 10
332.167969
 20
495.830566
 10
330.154297
 20
483.913818
 10
338.928711
 20
483.913818
 10
338.928711
 20
485.489746
 42
-1.035174
 10
338.928711
 20
481.337891
 10
338.928711
 20
482.913818
 10
330.154297
 20
482.913818
 10
332.167969
 20
470.99707
 10
331.181641
 20
470.830566
 10
329.138672
 20
482.913818
 10
323.234375
 20
482.913818
  0
LWPOLYLINE
  5
A5
100
AcDbEntity
  8
LAYER22
370
    25
390
0
  6
Continuous
 62
     2
100
AcDbPolyline
 90
       14
 70
     1
 10
321.673828
 20
498.342041
 42
-1.03523
 10
325.826172
 20
498.341797
 10
324.234375
 20
498.341797
 10
324.234375
 20
487.664063
 10
329.417969
 20
491.880859
 10
330.048828
 20
491.105225
 10
324.234375
 20
486.374756
 10
324.234375
 20
483.846924
 10
323.234375
 20
482.913818
 10
323.234375
 20
486.374756
 10
317.419922
 20
491.102783
 10
318.050781
 20
491.878662
 10
323.234375
 20
487.663574
 10
323.234375
 20
498.342041
  0
LWPOLYLINE
  5
A6
100
AcDbEntity
  8
LAYER22
370
    25
390
0
  6
Continuous
 62
     2
100
AcDbPolyline
 90
       10
 70
     0
 10
275.264648
 20
483.414063
 10
275.264648
 20
487.166016
 10
269.334961
 20
489.565674
 10
269.709961
 20
490.492432
 10
275.263672
 20
488.245117
 10
275.263672
 20
497.618896
 10
273.681152
 20
497.618896
 42
-1.035169
 10
277.833496
 20
497.618896
 10
276.264648
 20
497.618896
 10
276.263672
 20
483.414063
  0
LWPOLYLINE
  5
A7
100
AcDbEntity
  8
LAYER22
370
    25
390
0
  6
Continuous
 62
     2
100
AcDbPolyline
 90
       10
 70
     0
 10
275.264648
 20
483.414063
 10
275.264648
 20
478.938843
 10
269.334961
 20
476.539307
 10
269.709961
 20
475.612305
 10
275.263672
 20
477.859741
 10
275.263672
 20
468.48584
 10
273.681152
 20
468.48584
 42
1.035169
 10
277.833496
 20
468.48584
 10
276.264648
 20
468.48584
 10
276.263672
 20
483.414063
  0
LWPOLYLINE
  5
A8
100
AcDbEntity
  8
LAYER22
370
    25
390
0
  6
Continuous
 62
     2
100
AcDbPolyline
 90
       10
 70
     1
 10
269.765625
 20
490.414063
 10
269.765625
 20
545.414063
 10
281.765625
 20
545.414063
 10
281.765625
 20
490.414063
 10
276.765625
 20
490.414063
 10
276.765625
 20
497.342773
 10
277.826172
 20
497.342773
 42
1.034934
 10
273.674805
 20
497.342773
 10
274.765625
 20
497.342773
 10
274.765625
 20
490.414063
  0
LWPOLYLINE
  5
A9
100
AcDbEntity
  8
LAYER22
370
    18
390
0
  6
Continuous
 62
     1
100
AcDbPolyline
 90
        6
 70
     1
 10
281.765625
 20
523.493164
 10
281.765625
 20
513.495117
 10
278.765625
 20
516.452148
 10
268.765625
 20
516.452148
 10
268.765625
 20
520.452148
 10
278.765625
 20
520.452148
  0
LWPOLYLINE
  5
AA
100
AcDbEntity
  8
LAYER22
370
    18
390
0
  6
Continuous
 62
     1
100
AcDbPolyline
 90
        2
 70
     0
 10
278.765625
 20
516.452148
 10
278.765625
 20
520.452148
  0
LWPOLYLINE
  5
AB
100
AcDbEntity
  8
LAYER22
370
    18
390
0
  6
Continuous
 62
     1
100
AcDbPolyline
 90
       22
 70
     0
 10
268.765625
 20
516.452148
 10
266.515625
 20
520.302246
 10
264.375
 20
516.744873
 10
262.085205
 20
520.006836
 10
259.633301
 20
517.061035
 10
257.334473
 20
519.690186
 10
255.010742
 20
517.369141
 10
252.785156
 20
519.386963
 10
250.740479
 20
517.654053
 10
248.91333
 20
519.128662
 10
247.289551
 20
517.884033
 10
246.171631
 20
518.946045
 10
245.088135
 20
518.030762
 10
244.043457
 20
518.803955
 10
243.075439
 20
518.164795
 10
242.33374
 20
518.690186
 10
241.453125
 20
518.273193
 10
240.9021
 20
518.594727
 10
240.529053
 20
518.334717
 10
239.978027
 20
518.532959
 10
239.606445
 20
518.39624
 10
238.775391
 20
518.494141
  0
ENDSEC
  0
SECTION
  2
OBJECTS
  0
DICTIONARY
  5
19
100
AcDbDictionary
280
     0
281
     1
  3
ACAD_GROUP
350
1A
  3
ACAD_MLINESTYLE
350
1B
  3
ACAD_LAYOUT
350
1E
  3
ACAD_PLOTSETTINGS
350
22
  3
ACAD_PLOTSTYLENAME
350
1F
  3
ACAD_WIPEOUT_VARS
350
23
  0
DICTIONARY
  5
1A
102
{ACAD_REACTORS
330
19
102
}
100
AcDbDictionary
280
     0
281
     1
  0
DICTIONARY
  5
1B
102
{ACAD_REACTORS
330
19
102
}
100
AcDbDictionary
280
     0
281
     1
  3
Standard
350
1C
  0
MLINESTYLE
  5
1C
102
{ACAD_REACTORS
330
1B
102
}
100
AcDbMlineStyle
  2
Standard
 70
     0
  3

 62
     0
 51
90.0
 52
90.0
 71
     2
 49
0.5
 62
   256
  6
ByLayer
 49
-0.5
 62
   256
  6
ByLayer
  0
ACDBDICTIONARYWDFLT
  5
1F
102
{ACAD_REACTORS
330
19
102
}
100
AcDbDictionary
281
     1
  3
Normal
350
1D
100
AcDbDictionaryWithDefault
340
1D
  0
ACDBPLACEHOLDER
  5
1D
102
{ACAD_REACTORS
330
1F
102
}
  0
LAYOUT
  5
20
102
{ACAD_REACTORS
330
1E
102
}
100
AcDbPlotSettings
  1

  2

  4

  6

 40
0.0
 41
0.0
 42
0.0
 43
0.0
 44
0.0
 45
0.0
 46
0.0
 47
0.0
 48
0.0
 49
0.0
140
0.0
141
0.0
142
1.0
143
1.0
 70
  1024
 72
     0
 73
     0
 74
     0
  7

 75
     0
147
1.0
148
0.0
149
0.0
100
AcDbLayout
  1
Model
 70
     0
 71
     0
 10
0.0
 20
0.0
 11
0.0
 21
0.0
 12
0.0
 22
0.0
 32
0.0
 14
0.0
 24
0.0
 34
0.0
 15
0.0
 25
0.0
 35
0.0
146
0.0
 13
0.0
 23
0.0
 33
0.0
 16
0.0
 26
0.0
 36
0.0
 17
0.0
 27
0.0
 37
0.0
 76
     0
330
A
331
0
345
0
346
0
  0
LAYOUT
  5
21
102
{ACAD_REACTORS
330
1E
102
}
100
AcDbPlotSettings
  1

  2

  4

  6

 40
0.0
 41
0.0
 42
0.0
 43
0.0
 44
0.0
 45
0.0
 46
0.0
 47
0.0
 48
0.0
 49
0.0
140
0.0
141
0.0
142
1.0
143
1.0
 70
     0
 72
     0
 73
     0
 74
     0
  7

 75
     0
147
1.0
148
0.0
149
0.0
100
AcDbLayout
  1
Layout1
 70
     0
 71
     0
 10
0.0
 20
0.0
 11
0.0
 21
0.0
 12
0.0
 22
0.0
 32
0.0
 14
0.0
 24
0.0
 34
0.0
 15
0.0
 25
0.0
 35
0.0
146
0.0
 13
0.0
 23
0.0
 33
0.0
 16
0.0
 26
0.0
 36
0.0
 17
0.0
 27
0.0
 37
0.0
 76
     0
330
B
331
0
345
0
346
0
  0
DICTIONARY
  5
1E
102
{ACAD_REACTORS
330
19
102
}
100
AcDbDictionary
280
     0
281
     1
  3
Layout1
350
21
  3
Model
350
20
  0
DICTIONARY
  5
22
102
{ACAD_REACTORS
330
19
102
}
100
AcDbDictionary
280
     0
281
     1
  0
WIPEOUTVARIABLES
  5
23
100
AcDbWipeoutVariables
 70
     1
  0
ENDSEC
  0
EOF
