  0
SECTION
  2
HEADER
  9
$ACADVER
  1
AC1015
  9
$ACADMAINTVER
 70
     6
  9
$DWGCODEPAGE
  3
ANSI_1252
  9
$INSBASE
 10
0.0
 20
0.0
 30
0.0
  9
$EXTMIN
 10
1.000000E+20
 20
1.000000E+20
 30
1.000000E+20
  9
$EXTMAX
 10
-1.000000E+20
 20
-1.000000E+20
 30
-1.000000E+20
  9
$LIMMIN
 10
0.0
 20
0.0
  9
$LIMMAX
 10
0.0
 20
0.0
  9
$ORTHOMODE
 70
     0
  9
$REGENMODE
 70
     1
  9
$FILLMODE
 70
     1
  9
$QTEXTMODE
 70
     0
  9
$MIRRTEXT
 70
     1
  9
$LTSCALE
 40
50.0
  9
$ATTMODE
 70
     1
  9
$TEXTSIZE
 40
0.2
  9
$TRACEWID
 40
0.05
  9
$TEXTSTYLE
  7
Standard
  9
$CLAYER
  8
0
  9
$CELTYPE
  6
Continuous
  9
$CECOLOR
 62
   256
  9
$CELTSCALE
 40
1.0
  9
$DISPSILH
 70
     0
  9
$DIMSCALE
 40
1.0
  9
$DIMASZ
 40
0.18
  9
$DIMEXO
 40
0.0625
  9
$DIMDLI
 40
0.38
  9
$DIMRND
 40
0.0
  9
$DIMDLE
 40
0.0
  9
$DIMEXE
 40
0.18
  9
$DIMTP
 40
0.0
  9
$DIMTM
 40
0.0
  9
$DIMTXT
 40
0.18
  9
$DIMCEN
 40
0.09
  9
$DIMTSZ
 40
0.0
  9
$DIMTOL
 70
     0
  9
$DIMLIM
 70
     0
  9
$DIMTIH
 70
     1
  9
$DIMTOH
 70
     1
  9
$DIMSE1
 70
     0
  9
$DIMSE2
 70
     0
  9
$DIMTAD
 70
     0
  9
$DIMZIN
 70
     0
  9
$DIMBLK
  1

  9
$DIMASO
 70
     1
  9
$DIMSHO
 70
     1
  9
$DIMPOST
  1

  9
$DIMAPOST
  1

  9
$DIMALT
 70
     0
  9
$DIMALTD
 70
     2
  9
$DIMALTF
 40
25.4
  9
$DIMLFAC
 40
1.0
  9
$DIMTOFL
 70
     0
  9
$DIMTVP
 40
0.0
  9
$DIMTIX
 70
     0
  9
$DIMSOXD
 70
     0
  9
$DIMSAH
 70
     0
  9
$DIMBLK1
  1

  9
$DIMBLK2
  1

  9
$DIMSTYLE
  2
Standard
  9
$DIMCLRD
 70
     0
  9
$DIMCLRE
 70
     0
  9
$DIMCLRT
 70
     0
  9
$DIMTFAC
 40
1.0
  9
$DIMGAP
 40
0.09
  9
$DIMJUST
 70
     0
  9
$DIMSD1
 70
     0
  9
$DIMSD2
 70
     0
  9
$DIMTOLJ
 70
     1
  9
$DIMTZIN
 70
     0
  9
$DIMALTZ
 70
     0
  9
$DIMALTTZ
 70
     0
  9
$DIMUPT
 70
     0
  9
$DIMDEC
 70
     4
  9
$DIMTDEC
 70
     4
  9
$DIMALTU
 70
     2
  9
$DIMALTTD
 70
     2
  9
$DIMTXSTY
  7
Standard
  9
$DIMAUNIT
 70
     0
  9
$DIMADEC
 70
     0
  9
$DIMALTRND
 40
0.0
  9
$DIMAZIN
 70
     0
  9
$DIMDSEP
 70
     0
  9
$DIMATFIT
 70
     3
  9
$DIMFRAC
 70
     0
  9
$DIMLDRBLK
  1

  9
$DIMLUNIT
 70
     2
  9
$DIMLWD
 70
     0
  9
$DIMLWE
 70
     0
  9
$DIMTMOVE
 70
     0
  9
$LUNITS
 70
     2
  9
$LUPREC
 70
     4
  9
$SKETCHINC
 40
0.1
  9
$FILLETRAD
 40
0.0
  9
$AUNITS
 70
     0
  9
$AUPREC
 70
     0
  9
$MENU
  1
acad
  9
$ELEVATION
 40
0.0
  9
$PELEVATION
 40
0.0
  9
$THICKNESS
 40
0.0
  9
$LIMCHECK
 70
     0
  9
$CHAMFERA
 40
0.0
  9
$CHAMFERB
 40
0.0
  9
$CHAMFERC
 40
0.0
  9
$CHAMFERD
 40
0.0
  9
$SKPOLY
 70
     0
  9
$TDCREATE
 40
0.000000000
  9
$TDUCREATE
 40
0.000000000
  9
$TDUPDATE
 40
0.000000000
  9
$TDUUPDATE
 40
0.000000000
  9
$TDINDWG
 40
0.0000000000
  9
$TDUSRTIMER
 40
0.0000000000
  9
$USRTIMER
 70
     1
  9
$ANGBASE
 50
0.0
  9
$ANGDIR
 70
     0
  9
$PDMODE
 70
     0
  9
$PDSIZE
 40
0.0
  9
$PLINEWID
 40
0.0
  9
$SPLFRAME
 70
     0
  9
$SPLINETYPE
 70
     6
  9
$SPLINESEGS
 70
   120
  9
$HANDSEED
  5
B4
  9
$SURFTAB1
 70
     6
  9
$SURFTAB2
 70
     6
  9
$SURFTYPE
 70
     6
  9
$SURFU
 70
     6
  9
$SURFV
 70
     6
  9
$UCSBASE
  2

  9
$UCSNAME
  2

  9
$UCSORG
 10
0.0
 20
0.0
 30
0.0
  9
$UCSXDIR
 10
1.0
 20
0.0
 30
0.0
  9
$UCSYDIR
 10
0.0
 20
1.0
 30
0.0
  9
$UCSORTHOREF
  2

  9
$UCSORTHOVIEW
 70
     0
  9
$UCSORGTOP
 10
0.0
 20
0.0
 30
0.0
  9
$UCSORGBOTTOM
 10
0.0
 20
0.0
 30
0.0
  9
$UCSORGLEFT
 10
0.0
 20
0.0
 30
0.0
  9
$UCSORGRIGHT
 10
0.0
 20
0.0
 30
0.0
  9
$UCSORGFRONT
 10
0.0
 20
0.0
 30
0.0
  9
$UCSORGBACK
 10
0.0
 20
0.0
 30
0.0
  9
$PUCSBASE
  2

  9
$PUCSNAME
  2

  9
$PUCSORG
 10
0.0
 20
0.0
 30
0.0
  9
$PUCSXDIR
 10
1.0
 20
0.0
 30
0.0
  9
$PUCSYDIR
 10
0.0
 20
1.0
 30
0.0
  9
$PUCSORTHOREF
  2

  9
$PUCSORTHOVIEW
 70
     0
  9
$PUCSORGTOP
 10
0.0
 20
0.0
 30
0.0
  9
$PUCSORGBOTTOM
 10
0.0
 20
0.0
 30
0.0
  9
$PUCSORGLEFT
 10
0.0
 20
0.0
 30
0.0
  9
$PUCSORGRIGHT
 10
0.0
 20
0.0
 30
0.0
  9
$PUCSORGFRONT
 10
0.0
 20
0.0
 30
0.0
  9
$PUCSORGBACK
 10
0.0
 20
0.0
 30
0.0
  9
$USERI1
 70
 12345
  9
$USERI2
 70
     0
  9
$USERI3
 70
     0
  9
$USERI4
 70
     0
  9
$USERI5
 70
     0
  9
$USERR1
 40
0.0
  9
$USERR2
 40
0.0
  9
$USERR3
 40
0.0
  9
$USERR4
 40
0.0
  9
$USERR5
 40
0.0
  9
$WORLDVIEW
 70
     1
  9
$SHADEDGE
 70
     3
  9
$SHADEDIF
 70
    70
  9
$TILEMODE
 70
     1
  9
$MAXACTVP
 70
    16
  9
$PINSBASE
 10
0.0
 20
0.0
 30
0.0
  9
$PLIMCHECK
 70
     0
  9
$PEXTMIN
 10
1.000000E+20
 20
1.000000E+20
 30
1.000000E+20
  9
$PEXTMAX
 10
-1.000000E+20
 20
-1.000000E+20
 30
-1.000000E+20
  9
$PLIMMIN
 10
0.0
 20
0.0
  9
$PLIMMAX
 10
12.0
 20
9.0
  9
$UNITMODE
 70
     0
  9
$VISRETAIN
 70
     0
  9
$PLINEGEN
 70
     1
  9
$PSLTSCALE
 70
     0
  9
$TREEDEPTH
 70
  3020
  9
$CMLSTYLE
  2
Standard
  9
$CMLJUST
 70
     0
  9
$CMLSCALE
 40
1.0
  9
$PROXYGRAPHICS
 70
     0
  9
$MEASUREMENT
 70
     0
  9
$CELWEIGHT
370
     0
  9
$ENDCAPS
280
     0
  9
$JOINSTYLE
280
     0
  9
$LWDISPLAY
290
     0
  9
$INSUNITS
 70
     0
  9
$HYPERLINKBASE
  1

  9
$STYLESHEET
  1

  9
$XEDIT
290
     1
  9
$CEPSNTYPE
380
     0
  9
$PSTYLEMODE
290
     1
  9
$FINGERPRINTGUID
  2

  9
$VERSIONGUID
  2

  9
$EXTNAMES
290
     1
  9
$PSVPSCALE
 40
0.0
  0
ENDSEC
  0
SECTION
  2
CLASSES
  0
CLASS
  1
LWPOLYLINE
  2
AcDbPolyline
  3
AutoCAD 2000
 90
        0
280
     0
281
     1
  0
CLASS
  1
IMAGE
  2
AcDbRasterImage
  3
ISM
 90
      127
280
     0
281
     1
  0
CLASS
  1
OLE2FRAME
  2
AcDbOle2Frame
  3
AutoCAD 2000
 90
        0
280
     0
281
     1
  0
CLASS
  1
HATCH
  2
AcDbHatch
  3
AutoCAD 2000
 90
        0
280
     0
281
     1
  0
CLASS
  1
DICTIONARYVAR
  2
AcDbDictionaryVar
  3
AutoCAD 2000
 90
        0
280
     0
281
     0
  0
CLASS
  1
RASTERVARIABLES
  2
AcDbRasterVariables
  3
ISM
 90
        0
280
     0
281
     0
  0
CLASS
  1
IMAGEDEF
  2
AcDbRasterImageDef
  3
ISM
 90
        0
280
     0
281
     0
  0
CLASS
  1
IMAGEDEF_REACTOR
  2
AcDbRasterImageDefReactor
  3
ISM
 90
        1
280
     0
281
     0
  0
CLASS
  1
IDBUFFER
  2
AcDbIdBuffer
  3
AutoCAD 2000
 90
        0
280
     0
281
     0
  0
CLASS
  1
SPATIAL_FILTER
  2
AcDbSpatialFilter
  3
AutoCAD 2000
 90
        0
280
     0
281
     0
  0
CLASS
  1
XRECORD
  2
AcDbXrecord
  3
AutoCAD 2000
 90
        0
280
     0
281
     0
  0
CLASS
  1
SORTENTSTABLE
  2
AcDbSortentsTable
  3
AutoCAD 2000
 90
        0
280
     0
281
     0
  0
CLASS
  1
LAYER_INDEX
  2
AcDbLayerIndex
  3
AutoCAD 2000
 90
        0
280
     0
281
     0
  0
CLASS
  1
SPATIAL_INDEX
  2
AcDbSpatialIndex
  3
AutoCAD 2000
 90
        0
280
     0
281
     0
  0
CLASS
  1
OBJECT_PTR
  2
CAseDLPNTableRecord
  3
"ASE-LPNTableRecord"
 90
        1
280
     0
281
     0
  0
CLASS
  1
LAYOUT
  2
AcDbLayout
  3
AutoCAD 2000
 90
        0
280
     0
281
     0
  0
CLASS
  1
PLOTSETTINGS
  2
AcDbPlotSettings
  3
AutoCAD 2000
 90
        0
280
     0
281
     0
  0
CLASS
  1
ACDBDICTIONARYWDFLT
  2
AcDbDictionaryWithDefault
  3
AutoCAD 2000
 90
        0
280
     0
281
     0
  0
CLASS
  1
ACDBPLACEHOLDER
  2
AcDbPlaceHolder
  3
AutoCAD 2000
 90
        0
280
     0
281
     0
  0
CLASS
  1
VBA_PROJECT
  2
AcDbVbaProject
  3
acadvba
 90
        0
280
     0
281
     0
  0
CLASS
  1
WIPEOUT
  2
AcDbWipeout
  3
WipeOut|AutoCAD Express Tool|expresstools@autodesk.com
 90
      127
280
     0
281
     1
  0
CLASS
  1
WIPEOUTVARIABLES
  2
AcDbWipeoutVariables
  3
WipeOut|AutoCAD Express Tool|expresstools@autodesk.com
 90
        0
280
     0
281
     0
  0
CLASS
  1
RTEXT
  2
RText
  3
RText|AutoCAD Express Tool|expresstools@autodesk.com
 90
        0
280
     0
281
     1
  0
CLASS
  1
ARCALIGNEDTEXT
  2
AcDbArcAlignedText
  3
ATEXT|AutoCAD Express Tool|expresstools@autodesk.com
 90
        0
280
     0
281
     1
  0
ENDSEC
  0
SECTION
  2
TABLES
  0
TABLE
  2
VPORT
  5
7
100
AcDbSymbolTable
 70
     1
  0
VPORT
  5
15
100
AcDbSymbolTableRecord
100
AcDbViewportTableRecord
  2
*ACTIVE
 70
     0
 10
0.0
 20
0.0
 11
1.0
 21
1.0
 12
392.0
 22
-724.0
 13
0.0
 23
0.0
 14
1.0
 24
1.0
 15
0.0
 25
0.0
 16
0.0
 26
0.0
 36
1.0
 17
0.0
 27
0.0
 37
0.0
 40
2908.0
 41
0.688564
 42
50.0
 43
0.0
 44
0.0
 50
0.0
 51
0.0
 71
     0
 72
   100
 73
     1
 74
     1
 75
     0
 76
     0
 77
     0
 78
     0
281
     0
 65
     0
110
0.0
120
0.0
130
0.0
111
1.0
121
0.0
131
0.0
112
0.0
122
1.0
132
0.0
345
0
346
0
 79
     0
146
0.0
  0
ENDTAB
  0
TABLE
  2
LTYPE
  5
4
100
AcDbSymbolTable
 70
     7
  0
LTYPE
  5
11
100
AcDbSymbolTableRecord
100
AcDbLinetypeTableRecord
  2
ByBlock
 70
    64
  3

 72
    65
 73
     0
 40
0.0
  0
LTYPE
  5
12
100
AcDbSymbolTableRecord
100
AcDbLinetypeTableRecord
  2
ByLayer
 70
    64
  3

 72
    65
 73
     0
 40
0.0
  0
LTYPE
  5
13
100
AcDbSymbolTableRecord
100
AcDbLinetypeTableRecord
  2
Continuous
 70
    64
  3
Solid line
 72
    65
 73
     0
 40
0.0
  0
LTYPE
  5
24
100
AcDbSymbolTableRecord
100
AcDbLinetypeTableRecord
  2
DASHED
 70
    64
  3
Dashed __ __ __
 72
    65
 73
     2
 40
0.75
 49
0.5
 74
     0
 49
-0.25
 74
     0
  0
LTYPE
  5
25
100
AcDbSymbolTableRecord
100
AcDbLinetypeTableRecord
  2
DOT
 70
    64
  3
Dot . . . .
 72
    65
 73
     2
 40
0.25
 49
0.0
 74
     0
 49
-0.25
 74
     0
  0
LTYPE
  5
26
100
AcDbSymbolTableRecord
100
AcDbLinetypeTableRecord
  2
DASHDOT
 70
    64
  3
Dash dot __ . __ .
 72
    65
 73
     4
 40
1.0
 49
0.5
 74
     0
 49
-0.25
 74
     0
 49
0.0
 74
     0
 49
-0.25
 74
     0
  0
LTYPE
  5
27
100
AcDbSymbolTableRecord
100
AcDbLinetypeTableRecord
  2
DIVIDE
 70
    64
  3
Divide __ . . __ . .
 72
    65
 73
     6
 40
1.25
 49
0.5
 74
     0
 49
-0.25
 74
     0
 49
0.0
 74
     0
 49
-0.25
 74
     0
 49
0.0
 74
     0
 49
-0.25
 74
     0
  0
ENDTAB
  0
TABLE
  2
LAYER
  5
2
100
AcDbSymbolTable
 70
     3
  0
LAYER
  5
14
100
AcDbSymbolTableRecord
100
AcDbLayerTableRecord
  2
0
 70
     0
 62
     7
  6
Continuous
290
     1
370
    -3
390
1D
  0
LAYER
  5
29
100
AcDbSymbolTableRecord
100
AcDbLayerTableRecord
  2
LAYER01
 70
     0
 62
     7
  6
Continuous
290
     1
370
    -3
390
1D
  0
LAYER
  5
37
100
AcDbSymbolTableRecord
100
AcDbLayerTableRecord
  2
LAYER22
 70
     0
 62
     7
  6
Continuous
290
     1
370
    -3
390
1D
  0
ENDTAB
  0
TABLE
  2
STYLE
  5
3
100
AcDbSymbolTable
 70
     1
  0
STYLE
  5
17
100
AcDbSymbolTableRecord
100
AcDbTextStyleTableRecord
  2
Standard
 70
     0
 40
0.0
 41
1.0
 50
0.0
 71
     0
 42
0.0
  3
txt
  4

  0
ENDTAB
  0
TABLE
  2
VIEW
  5
5
100
AcDbSymbolTable
 70
     0
  0
ENDTAB
  0
TABLE
  2
UCS
  5
6
100
AcDbSymbolTable
 70
     0
  0
ENDTAB
  0
TABLE
  2
APPID
  5
8
100
AcDbSymbolTable
 70
     1
  0
APPID
  5
16
100
AcDbSymbolTableRecord
100
AcDbRegAppTableRecord
  2
ACAD
 70
     0
  0
ENDTAB
  0
TABLE
  2
DIMSTYLE
  5
9
100
AcDbSymbolTable
 70
     1
100
AcDbDimStyleTable
 71
     0
  0
DIMSTYLE
105
18
100
AcDbSymbolTableRecord
100
AcDbDimStyleTableRecord
  2
Standard
 70
     0
  3

  4

 40
1.0
 41
0.18
 42
0.0625
 43
0.38
 44
0.18
 45
0.0
 46
0.0
 47
0.0
 48
0.0
 71
     0
 72
     0
 73
     1
 74
     1
 75
     0
 76
     0
 77
     0
 78
     0
 79
     0
140
0.18
141
0.09
142
0.0
143
25.4
144
1.0
145
0.0
146
1.0
147
0.09
148
0.0
170
     0
171
     2
172
     0
173
     0
174
     0
175
     0
176
     0
177
     0
178
     0
179
     0
271
     4
272
     4
273
     2
274
     2
275
     0
276
     0
277
     2
278
    46
279
     0
280
     0
281
     0
282
     0
283
     1
284
     0
285
     0
286
     0
288
     0
289
     3
340
17
341
0
342
0
343
0
344
0
371
    -2
372
    -2
  0
ENDTAB
  0
TABLE
  2
BLOCK_RECORD
  5
1
100
AcDbSymbolTable
 70
     0
  0
BLOCK_RECORD
  5
A
100
AcDbSymbolTableRecord
100
AcDbBlockTableRecord
  2
*MODEL_SPACE
340
20
  0
BLOCK_RECORD
  5
B
100
AcDbSymbolTableRecord
100
AcDbBlockTableRecord
  2
*PAPER_SPACE
340
21
  0
ENDTAB
  0
ENDSEC
  0
SECTION
  2
BLOCKS
  0
BLOCK
  5
D
100
AcDbEntity
  8
0
390
0
100
AcDbBlockBegin
  2
*MODEL_SPACE
 70
     0
 10
0.0
 20
0.0
 30
0.0
  3
*MODEL_SPACE
  1

  0
ENDBLK
  5
E
100
AcDbEntity
  8
0
390
0
100
AcDbBlockEnd
  0
BLOCK
  5
F
100
AcDbEntity
 67
     1
  8
0
390
0
100
AcDbBlockBegin
  2
*PAPER_SPACE
 70
     0
 10
0.0
 20
0.0
 30
0.0
  3
*PAPER_SPACE
  1

  0
ENDBLK
  5
10
100
AcDbEntity
 67
     1
  8
0
390
0
100
AcDbBlockEnd
  0
ENDSEC
  0
SECTION
  2
ENTITIES
  0
MTEXT
  5
28
100
AcDbEntity
  8
LAYER01
390
0
 62
     2
100
AcDbMText
 10
-647.195313
 20
667.0
 30
0.0
 40
11.25
 41
0.0
 71
     7
 72
     1
  1
duplo 88 EN 88S
 11
1.0
 21
0.0
 31
0.0
 73
     1
 44
1.333333
  0
LWPOLYLINE
  5
2A
100
AcDbEntity
  8
LAYER01
370
    13
390
0
  6
Continuous
 62
     5
100
AcDbPolyline
 90
        2
 70
     0
 10
-552.195313
 20
259.0
 10
-108.195313
 20
259.0
  0
LWPOLYLINE
  5
2B
100
AcDbEntity
  8
LAYER01
370
    18
390
0
  6
Continuous
 62
     1
100
AcDbPolyline
 90
        2
 70
     0
 10
-552.195374
 20
261.499969
 10
-552.195374
 20
251.499969
  0
LWPOLYLINE
  5
2C
100
AcDbEntity
  8
LAYER01
370
    18
390
0
  6
Continuous
 62
     1
100
AcDbPolyline
 90
        2
 70
     0
 10
-108.195351
 20
261.499969
 10
-108.195351
 20
251.499969
  0
MTEXT
  5
2D
100
AcDbEntity
  8
LAYER01
390
0
 62
     2
100
AcDbMText
 10
-330.195313
 20
263.166656
 30
0.0
 40
11.25
 41
0.0
 71
     8
 72
     1
  1
444
 11
1.0
 21
0.0
 31
0.0
 73
     1
 44
1.333333
  0
LWPOLYLINE
  5
2E
100
AcDbEntity
  8
LAYER01
370
    13
390
0
  6
Continuous
 62
     5
100
AcDbPolyline
 90
        2
 70
     0
 10
-537.195313
 20
349.0
 10
-345.195313
 20
349.0
  0
LWPOLYLINE
  5
2F
100
AcDbEntity
  8
LAYER01
370
    18
390
0
  6
Continuous
 62
     1
100
AcDbPolyline
 90
        2
 70
     0
 10
-537.195374
 20
351.499969
 10
-537.195374
 20
341.499969
  0
LWPOLYLINE
  5
30
100
AcDbEntity
  8
LAYER01
370
    18
390
0
  6
Continuous
 62
     1
100
AcDbPolyline
 90
        2
 70
     0
 10
-345.195343
 20
351.499969
 10
-345.195343
 20
341.499969
  0
MTEXT
  5
31
100
AcDbEntity
  8
LAYER01
390
0
 62
     2
100
AcDbMText
 10
-441.195313
 20
353.166656
 30
0.0
 40
11.25
 41
0.0
 71
     8
 72
     1
  1
192
 11
1.0
 21
0.0
 31
0.0
 73
     1
 44
1.333333
  0
LWPOLYLINE
  5
32
100
AcDbEntity
  8
LAYER01
370
    13
390
0
  6
Continuous
 62
     5
100
AcDbPolyline
 90
        2
 70
     0
 10
-315.195313
 20
349.0
 10
-123.195313
 20
349.0
  0
LWPOLYLINE
  5
33
100
AcDbEntity
  8
LAYER01
370
    18
390
0
  6
Continuous
 62
     1
100
AcDbPolyline
 90
        2
 70
     0
 10
-315.195343
 20
351.499969
 10
-315.195343
 20
341.499969
  0
LWPOLYLINE
  5
34
100
AcDbEntity
  8
LAYER01
370
    18
390
0
  6
Continuous
 62
     1
100
AcDbPolyline
 90
        2
 70
     0
 10
-123.195351
 20
351.499969
 10
-123.195351
 20
341.499969
  0
MTEXT
  5
35
100
AcDbEntity
  8
LAYER01
390
0
 62
     2
100
AcDbMText
 10
-219.195313
 20
353.166656
 30
0.0
 40
11.25
 41
0.0
 71
     8
 72
     1
  1
192
 11
1.0
 21
0.0
 31
0.0
 73
     1
 44
1.333333
  0
LWPOLYLINE
  5
36
100
AcDbEntity
  8
LAYER22
370
    18
390
0
  6
Continuous
 62
     1
100
AcDbPolyline
 90
        4
 70
     1
 10
-537.195313
 20
-2097.0
 10
-537.195313
 20
531.0
 10
-345.195313
 20
531.0
 10
-345.195313
 20
-2097.0
  0
LWPOLYLINE
  5
38
100
AcDbEntity
  8
LAYER22
370
    18
390
0
  6
Continuous
 62
     1
100
AcDbPolyline
 90
        4
 70
     1
 10
-345.195313
 20
-2097.0
 10
-345.195313
 20
531.0
 10
-315.195313
 20
531.0
 10
-315.195313
 20
-2097.0
  0
LWPOLYLINE
  5
39
100
AcDbEntity
  8
LAYER22
370
    25
390
0
  6
Continuous
 62
     2
100
AcDbPolyline
 90
       23
 70
     0
 10
-330.195313
 20
583.0
 10
-320.857422
 20
583.0
 10
-320.857422
 20
581.384766
 10
-311.267578
 20
581.384766
 42
-0.414214
 10
-309.652344
 20
579.769531
 10
-309.652344
 20
557.056641
 10
-308.917969
 20
552.894531
 42
-0.466313
 10
-310.509766
 20
550.999146
 10
-321.210938
 20
551.0
 42
-0.469821
 10
-322.798309
 20
552.91394
 10
-322.019531
 20
557.056641
 10
-321.009766
 20
557.056641
 10
-321.009766
 20
553.726563
 10
-320.302734
 20
553.019531
 10
-314.75
 20
553.019531
 10
-314.042969
 20
553.726563
 10
-314.042969
 20
557.056641
 10
-311.671875
 20
557.056641
 10
-311.671875
 20
576.337891
 42
0.414214
 10
-314.699219
 20
579.365234
 10
-323.785156
 20
579.365234
 10
-323.785156
 20
580.878906
 10
-330.195313
 20
580.878906
  0
LWPOLYLINE
  5
3A
100
AcDbEntity
  8
LAYER22
370
    25
390
0
  6
Continuous
 62
     2
100
AcDbPolyline
 90
       23
 70
     0
 10
-330.195313
 20
583.0
 10
-339.533203
 20
583.0
 10
-339.533203
 20
581.384766
 10
-349.123047
 20
581.384766
 42
0.414214
 10
-350.738281
 20
579.769531
 10
-350.738281
 20
557.056641
 10
-351.472656
 20
552.894531
 42
0.466313
 10
-349.880859
 20
550.999146
 10
-339.179688
 20
551.0
 42
0.469821
 10
-337.592316
 20
552.91394
 10
-338.371094
 20
557.056641
 10
-339.380859
 20
557.056641
 10
-339.380859
 20
553.726563
 10
-340.087891
 20
553.019531
 10
-345.640625
 20
553.019531
 10
-346.347656
 20
553.726563
 10
-346.347656
 20
557.056641
 10
-348.71875
 20
557.056641
 10
-348.71875
 20
576.337891
 42
-0.414214
 10
-345.691406
 20
579.365234
 10
-336.605469
 20
579.365234
 10
-336.605469
 20
580.878906
 10
-330.195313
 20
580.878906
  0
LWPOLYLINE
  5
3B
100
AcDbEntity
  8
LAYER22
370
    18
390
0
  6
Continuous
 62
     1
100
AcDbPolyline
 90
        6
 70
     1
 10
-325.196289
 20
580.878906
 10
-335.194336
 20
580.878906
 10
-332.237305
 20
583.878906
 10
-332.237305
 20
593.878906
 10
-328.237305
 20
593.878906
 10
-328.237305
 20
583.878906
  0
LWPOLYLINE
  5
3C
100
AcDbEntity
  8
LAYER22
370
    18
390
0
  6
Continuous
 62
     1
100
AcDbPolyline
 90
        2
 70
     0
 10
-332.237305
 20
583.878906
 10
-328.237305
 20
583.878906
  0
LWPOLYLINE
  5
3D
100
AcDbEntity
  8
LAYER22
370
    18
390
0
  6
Continuous
 62
     1
100
AcDbPolyline
 90
       22
 70
     0
 10
-332.237305
 20
593.878906
 10
-328.387207
 20
596.128906
 10
-331.94458
 20
598.269531
 10
-328.682617
 20
600.559326
 10
-331.628418
 20
603.01123
 10
-328.999268
 20
605.310059
 10
-331.320313
 20
607.633789
 10
-329.30249
 20
609.859375
 10
-331.0354
 20
611.904053
 10
-329.560791
 20
613.731201
 10
-330.80542
 20
615.35498
 10
-329.743408
 20
616.4729
 10
-330.658691
 20
617.556396
 10
-329.885498
 20
618.601074
 10
-330.524658
 20
619.569092
 10
-329.999268
 20
620.310791
 10
-330.41626
 20
621.191406
 10
-330.094727
 20
621.742432
 10
-330.354736
 20
622.115479
 10
-330.156494
 20
622.666504
 10
-330.293213
 20
623.038086
 10
-330.195313
 20
623.869141
  0
LWPOLYLINE
  5
3E
100
AcDbEntity
  8
LAYER22
370
    18
390
0
  6
Continuous
 62
     1
100
AcDbPolyline
 90
        4
 70
     1
 10
-345.892578
 20
577.246094
 10
-339.835938
 20
577.246094
 10
-339.835938
 20
553.019531
 10
-345.892578
 20
553.019531
  0
LWPOLYLINE
  5
3F
100
AcDbEntity
  8
LAYER22
370
    18
390
0
  6
Continuous
 62
     1
100
AcDbPolyline
 90
        4
 70
     1
 10
-339.835938
 20
571.693359
 10
-320.554688
 20
571.693359
 10
-320.554688
 20
558.570313
 10
-339.835938
 20
558.570313
  0
LWPOLYLINE
  5
40
100
AcDbEntity
  8
LAYER22
370
    18
390
0
  6
Continuous
 62
     1
100
AcDbPolyline
 90
        4
 70
     1
 10
-320.554688
 20
577.246094
 10
-314.498047
 20
577.246094
 10
-314.498047
 20
553.019531
 10
-320.554688
 20
553.019531
  0
LWPOLYLINE
  5
41
100
AcDbEntity
  8
LAYER22
370
    18
390
0
  6
Continuous
 62
     1
100
AcDbPolyline
 90
        4
 70
     1
 10
-325.148438
 20
558.570313
 10
-325.148438
 20
531.0
 10
-335.242188
 20
531.0
 10
-335.242188
 20
558.570313
  0
LWPOLYLINE
  5
42
100
AcDbEntity
  8
LAYER22
370
    25
390
0
  6
Continuous
 62
     2
100
AcDbPolyline
 90
        4
 70
     1
 10
-308.195313
 20
551.0
 10
-308.195313
 20
583.0
 10
-155.195313
 20
583.0
 10
-155.195313
 20
551.0
  0
LWPOLYLINE
  5
43
100
AcDbEntity
  8
LAYER22
370
    25
390
0
  6
Continuous
 62
     2
100
AcDbPolyline
 90
        4
 70
     1
 10
-505.195313
 20
551.0
 10
-505.195313
 20
583.0
 10
-352.195313
 20
583.0
 10
-352.195313
 20
551.0
  0
LWPOLYLINE
  5
44
100
AcDbEntity
  8
LAYER22
370
    18
390
0
  6
Continuous
 62
     1
100
AcDbPolyline
 90
        4
 70
     1
 10
-552.195313
 20
-2097.0
 10
-552.195313
 20
531.0
 10
-537.195313
 20
531.0
 10
-537.195313
 20
-2097.0
  0
LWPOLYLINE
  5
45
100
AcDbEntity
  8
LAYER22
370
    13
390
0
  6
DASHDOT
 62
     5
100
AcDbPolyline
 90
        2
 70
     0
 10
-330.195313
 20
583.0
 10
-330.195313
 20
-2097.0
  0
LWPOLYLINE
  5
46
100
AcDbEntity
  8
LAYER22
370
    18
390
0
  6
Continuous
 62
     1
100
AcDbPolyline
 90
        4
 70
     1
 10
-315.195313
 20
-2097.0
 10
-315.195313
 20
531.0
 10
-123.195313
 20
531.0
 10
-123.195313
 20
-2097.0
  0
LWPOLYLINE
  5
47
100
AcDbEntity
  8
LAYER22
370
    18
390
0
  6
Continuous
 62
     1
100
AcDbPolyline
 90
        4
 70
     1
 10
-123.195313
 20
-2097.0
 10
-123.195313
 20
531.0
 10
-108.195313
 20
531.0
 10
-108.195313
 20
-2097.0
  0
LWPOLYLINE
  5
48
100
AcDbEntity
  8
LAYER22
370
    18
390
0
  6
Continuous
 62
     1
100
AcDbPolyline
 90
        6
 70
     1
 10
-537.195313
 20
531.0
 10
-537.195313
 20
548.0
 42
-0.414214
 10
-534.195313
 20
551.0
 10
-126.195313
 20
551.0
 42
-0.414214
 10
-123.195313
 20
548.0
 10
-123.195313
 20
531.0
  0
LWPOLYLINE
  5
49
100
AcDbEntity
  8
LAYER22
370
    18
390
0
  6
Continuous
 62
     1
100
AcDbPolyline
 90
        6
 70
     1
 10
-537.195313
 20
-2097.0
 10
-537.195313
 20
-2114.0
 42
0.414214
 10
-534.195313
 20
-2117.0
 10
-126.195313
 20
-2117.0
 42
0.414214
 10
-123.195313
 20
-2114.0
 10
-123.195313
 20
-2097.0
  0
LWPOLYLINE
  5
4A
100
AcDbEntity
  8
LAYER22
370
    13
390
0
  6
DASHDOT
 62
     5
100
AcDbPolyline
 90
        2
 70
     0
 10
170.0
 20
300.0
 10
1420.0
 20
300.0
  0
LWPOLYLINE
  5
4B
100
AcDbEntity
  8
LAYER22
370
    25
390
0
  6
Continuous
 62
     2
100
AcDbPolyline
 90
       16
 70
     1
 10
315.909149
 20
318.338867
 10
325.958801
 20
510.075684
 10
330.951965
 20
509.813965
 10
330.585571
 20
502.823578
 10
329.49527
 20
502.880707
 42
1.0
 10
333.641907
 20
502.663361
 10
332.582825
 20
502.718872
 10
332.949219
 20
509.70929
 10
337.942352
 20
509.447571
 10
327.8927
 20
317.710754
 10
322.899567
 20
317.972473
 10
323.262177
 20
324.890717
 10
324.321259
 20
324.835205
 42
1.035413
 10
320.174622
 20
325.052551
 10
321.264923
 20
324.995392
 10
320.902313
 20
318.077148
  0
LWPOLYLINE
  5
4C
100
AcDbEntity
  8
LAYER22
370
    25
390
0
  6
Continuous
 62
     2
100
AcDbPolyline
 90
       21
 70
     0
 10
338.099609
 20
513.44873
 10
332.085938
 20
513.44873
 10
332.085938
 20
502.770996
 10
333.646484
 20
502.770508
 42
-0.999763
 10
329.525391
 20
502.770508
 10
331.085938
 20
502.770508
 10
331.085938
 20
512.72168
 10
325.586914
 20
509.621582
 10
324.956055
 20
510.397949
 10
332.133789
 20
514.737793
 10
332.133789
 20
518.402832
 10
330.109375
 20
519.817871
 10
330.110352
 20
521.770996
 10
330.607422
 20
522.270996
 10
338.085938
 20
522.270996
 10
338.085938
 20
521.270996
 10
331.076172
 20
521.270996
 10
331.076172
 20
520.279785
 10
333.21875
 20
518.581543
 10
333.21875
 20
514.737793
 10
338.099609
 20
514.737793
  0
LWPOLYLINE
  5
4D
100
AcDbEntity
  8
LAYER22
370
    25
390
0
  6
Continuous
 62
     2
100
AcDbPolyline
 90
       21
 70
     0
 10
338.072266
 20
513.44873
 10
344.085938
 20
513.44873
 10
344.085938
 20
502.770996
 10
342.525391
 20
502.770508
 42
0.999763
 10
346.646484
 20
502.770508
 10
345.085938
 20
502.770508
 10
345.085938
 20
512.72168
 10
350.584961
 20
509.621582
 10
351.21582
 20
510.397949
 10
344.038086
 20
514.737793
 10
344.038086
 20
518.402832
 10
346.0625
 20
519.817871
 10
346.061523
 20
521.770996
 10
345.564453
 20
522.270996
 10
338.085938
 20
522.270996
 10
338.085938
 20
521.270996
 10
345.095703
 20
521.270996
 10
345.095703
 20
520.279785
 10
342.953125
 20
518.581543
 10
342.953125
 20
514.737793
 10
338.072266
 20
514.737793
  0
LWPOLYLINE
  5
4E
100
AcDbEntity
  8
LAYER22
370
    25
390
0
  6
Continuous
 62
     2
100
AcDbPolyline
 90
       13
 70
     0
 10
305.132813
 20
318.48584
 10
300.30957
 20
318.48584
 10
288.249023
 20
325.447754
 10
289.029297
 20
326.799805
 42
1.0
 10
286.96875
 20
323.230469
 10
287.749023
 20
324.582031
 10
296.99707
 20
319.243652
 10
290.754883
 20
316.86084
 10
291.110352
 20
315.926758
 10
298.008789
 20
318.558594
 10
299.180664
 20
317.850098
 10
300.265625
 20
317.53418
 10
305.132813
 20
317.53418
  0
LWPOLYLINE
  5
4F
100
AcDbEntity
  8
LAYER22
370
    25
390
0
  6
Continuous
 62
     2
100
AcDbPolyline
 90
       13
 70
     0
 10
305.132813
 20
318.48584
 10
309.956055
 20
318.48584
 10
322.016602
 20
325.447754
 10
321.236328
 20
326.799805
 42
-1.0
 10
323.296875
 20
323.230469
 10
322.516602
 20
324.582031
 10
313.268555
 20
319.243652
 10
319.510742
 20
316.86084
 10
319.155273
 20
315.926758
 10
312.256836
 20
318.558594
 10
311.084961
 20
317.850098
 10
310.0
 20
317.53418
 10
305.132813
 20
317.53418
  0
LWPOLYLINE
  5
50
100
AcDbEntity
  8
LAYER22
370
    25
390
0
  6
Continuous
 62
     2
100
AcDbPolyline
 90
       11
 70
     0
 10
360.412109
 20
314.337402
 10
354.398438
 20
314.337402
 10
354.398438
 20
325.015137
 10
355.958984
 20
325.015625
 42
0.999763
 10
351.837891
 20
325.015625
 10
353.398438
 20
325.015625
 10
353.398438
 20
315.064453
 10
347.899414
 20
318.164551
 10
347.268555
 20
317.388184
 10
354.446289
 20
313.04834
 10
360.412109
 20
313.04834
  0
LWPOLYLINE
  5
51
100
AcDbEntity
  8
LAYER22
370
    25
390
0
  6
Continuous
 62
     2
100
AcDbPolyline
 90
       11
 70
     0
 10
360.384766
 20
314.337402
 10
366.398438
 20
314.337402
 10
366.398438
 20
325.015137
 10
364.837891
 20
325.015625
 42
-0.999763
 10
368.958984
 20
325.015625
 10
367.398438
 20
325.015625
 10
367.398438
 20
315.064453
 10
372.897461
 20
318.164551
 10
373.52832
 20
317.388184
 10
366.350586
 20
313.04834
 10
360.384766
 20
313.04834
  0
LWPOLYLINE
  5
52
100
AcDbEntity
  8
LAYER22
370
    25
390
0
  6
Continuous
 62
     2
100
AcDbPolyline
 90
       13
 70
     0
 10
415.667969
 20
318.48584
 10
410.844727
 20
318.48584
 10
398.78418
 20
325.447754
 10
399.564453
 20
326.799805
 42
1.0
 10
397.503906
 20
323.230469
 10
398.28418
 20
324.582031
 10
407.532227
 20
319.243652
 10
401.290039
 20
316.86084
 10
401.645508
 20
315.926758
 10
408.543945
 20
318.558594
 10
409.71582
 20
317.850098
 10
410.800781
 20
317.53418
 10
415.667969
 20
317.53418
  0
LWPOLYLINE
  5
53
100
AcDbEntity
  8
LAYER22
370
    25
390
0
  6
Continuous
 62
     2
100
AcDbPolyline
 90
       13
 70
     0
 10
415.667969
 20
318.48584
 10
420.491211
 20
318.48584
 10
432.551758
 20
325.447754
 10
431.771484
 20
326.799805
 42
-1.0
 10
433.832031
 20
323.230469
 10
433.051758
 20
324.582031
 10
423.803711
 20
319.243652
 10
430.045898
 20
316.86084
 10
429.69043
 20
315.926758
 10
422.791992
 20
318.558594
 10
421.620117
 20
317.850098
 10
420.535156
 20
317.53418
 10
415.667969
 20
317.53418
  0
LWPOLYLINE
  5
54
100
AcDbEntity
  8
LAYER22
370
    25
390
0
  6
Continuous
 62
     2
100
AcDbPolyline
 90
        4
 70
     1
 10
425.802734
 20
283.5
 10
425.802734
 20
316.5
 10
528.802734
 20
316.5
 10
528.802734
 20
283.5
  0
LWPOLYLINE
  5
55
100
AcDbEntity
  8
LAYER22
370
    25
390
0
  6
Continuous
 62
     2
100
AcDbPolyline
 90
       10
 70
     1
 10
425.802734
 20
331.0
 10
425.802734
 20
326.0
 10
432.802734
 20
326.0
 10
432.802734
 20
327.09082
 42
-1.0
 10
432.802734
 20
322.939453
 10
432.802734
 20
324.0
 10
425.802734
 20
324.0
 10
425.802734
 20
319.0
 10
550.802734
 20
319.0
 10
550.802734
 20
331.0
  0
LWPOLYLINE
  5
56
100
AcDbEntity
  8
LAYER22
370
    25
390
0
  6
Continuous
 62
     2
100
AcDbPolyline
 90
       10
 70
     1
 10
425.802734
 20
281.0
 10
425.802734
 20
276.0
 10
432.802734
 20
276.0
 10
432.802734
 20
277.09082
 42
-1.0
 10
432.802734
 20
272.939453
 10
432.802734
 20
274.0
 10
425.802734
 20
274.0
 10
425.802734
 20
269.0
 10
550.802734
 20
269.0
 10
550.802734
 20
281.0
  0
LWPOLYLINE
  5
57
100
AcDbEntity
  8
LAYER22
370
    35
390
0
  6
Continuous
 62
     4
100
AcDbPolyline
 90
        6
 70
     0
 10
550.802734
 20
331.0
 10
550.802734
 20
313.405273
 10
528.802734
 20
309.125
 10
528.802734
 20
290.875
 10
550.802734
 20
286.594727
 10
550.802734
 20
269.0
  0
LWPOLYLINE
  5
58
100
AcDbEntity
  8
LAYER22
370
    25
390
0
  6
Continuous
 62
     2
100
AcDbPolyline
 90
        8
 70
     1
 10
551.302734
 20
329.438477
 10
553.199219
 20
329.438477
 42
-0.5275
 10
553.199219
 20
314.90625
 10
551.498047
 20
314.906738
 10
551.498047
 20
316.944336
 10
553.199219
 20
316.944336
 42
0.686995
 10
553.199219
 20
327.400391
 10
551.302734
 20
327.400879
  0
LWPOLYLINE
  5
59
100
AcDbEntity
  8
LAYER22
370
    25
390
0
  6
Continuous
 62
     2
100
AcDbPolyline
 90
       14
 70
     1
 10
545.394531
 20
331.5
 10
551.302734
 20
331.5
 10
551.302734
 20
329.938477
 10
553.199219
 20
329.938477
 10
553.199219
 20
329.438477
 10
551.302734
 20
329.438477
 10
551.302734
 20
327.400879
 10
553.199219
 20
327.400879
 10
553.199219
 20
326.900879
 10
551.302734
 20
326.900879
 10
551.302734
 20
325.979004
 10
550.802734
 20
325.979004
 10
550.802734
 20
331.0
 10
545.394531
 20
331.0
  0
LWPOLYLINE
  5
5A
100
AcDbEntity
  8
LAYER22
370
    25
390
0
  6
Continuous
 62
     2
100
AcDbPolyline
 90
       12
 70
     1
 10
551.302734
 20
313.344727
 10
551.302734
 20
314.40625
 10
553.199219
 20
314.40625
 10
553.199219
 20
314.90625
 10
551.302734
 20
314.90625
 10
551.302734
 20
316.943848
 10
553.199219
 20
316.943848
 10
553.199219
 20
317.443848
 10
551.302734
 20
317.443848
 10
551.302734
 20
318.365723
 10
550.802734
 20
318.365723
 10
550.802734
 20
313.344727
  0
LWPOLYLINE
  5
5B
100
AcDbEntity
  8
LAYER22
370
    25
390
0
  6
Continuous
 62
     2
100
AcDbPolyline
 90
        8
 70
     1
 10
551.302734
 20
270.561523
 10
553.199219
 20
270.561523
 42
0.5275
 10
553.199219
 20
285.09375
 10
551.498047
 20
285.093262
 10
551.498047
 20
283.055664
 10
553.199219
 20
283.055664
 42
-0.686995
 10
553.199219
 20
272.599609
 10
551.302734
 20
272.599121
  0
LWPOLYLINE
  5
5C
100
AcDbEntity
  8
LAYER22
370
    25
390
0
  6
Continuous
 62
     2
100
AcDbPolyline
 90
       14
 70
     1
 10
545.394531
 20
268.5
 10
551.302734
 20
268.5
 10
551.302734
 20
270.061523
 10
553.199219
 20
270.061523
 10
553.199219
 20
270.561523
 10
551.302734
 20
270.561523
 10
551.302734
 20
272.599121
 10
553.199219
 20
272.599121
 10
553.199219
 20
273.099121
 10
551.302734
 20
273.099121
 10
551.302734
 20
274.020996
 10
550.802734
 20
274.020996
 10
550.802734
 20
269.0
 10
545.394531
 20
269.0
  0
LWPOLYLINE
  5
5D
100
AcDbEntity
  8
LAYER22
370
    25
390
0
  6
Continuous
 62
     2
100
AcDbPolyline
 90
       12
 70
     1
 10
551.302734
 20
286.655273
 10
551.302734
 20
285.59375
 10
553.199219
 20
285.59375
 10
553.199219
 20
285.09375
 10
551.302734
 20
285.09375
 10
551.302734
 20
283.056152
 10
553.199219
 20
283.056152
 10
553.199219
 20
282.556152
 10
551.302734
 20
282.556152
 10
551.302734
 20
281.634277
 10
550.802734
 20
281.634277
 10
550.802734
 20
286.655273
  0
LWPOLYLINE
  5
5E
100
AcDbEntity
  8
LAYER22
370
    25
390
0
  6
Continuous
 62
     2
100
AcDbPolyline
 90
        4
 70
     1
 10
170.0
 20
283.5
 10
170.0
 20
316.5
 10
295.0
 20
316.5
 10
295.0
 20
283.5
  0
LWPOLYLINE
  5
5F
100
AcDbEntity
  8
LAYER22
370
    25
390
0
  6
Continuous
 62
     2
100
AcDbPolyline
 90
       10
 70
     1
 10
295.0
 20
331.0
 10
295.0
 20
326.0
 10
288.0
 20
326.0
 10
288.0
 20
327.09082
 42
1.0
 10
288.0
 20
322.939453
 10
288.0
 20
324.0
 10
295.0
 20
324.0
 10
295.0
 20
319.0
 10
170.0
 20
319.0
 10
170.0
 20
331.0
  0
LWPOLYLINE
  5
60
100
AcDbEntity
  8
LAYER22
370
    25
390
0
  6
Continuous
 62
     2
100
AcDbPolyline
 90
       10
 70
     1
 10
295.0
 20
281.0
 10
295.0
 20
276.0
 10
288.0
 20
276.0
 10
288.0
 20
277.09082
 42
1.0
 10
288.0
 20
272.939453
 10
288.0
 20
274.0
 10
295.0
 20
274.0
 10
295.0
 20
269.0
 10
170.0
 20
269.0
 10
170.0
 20
281.0
  0
LWPOLYLINE
  5
61
100
AcDbEntity
  8
LAYER22
370
    35
390
0
  6
Continuous
 62
     4
100
AcDbPolyline
 90
        8
 70
     0
 10
1420.0
 20
269.0
 10
1405.300781
 20
269.0
 10
1405.300781
 20
286.594727
 10
1383.10791
 20
290.776367
 10
1383.10791
 20
309.223145
 10
1405.282227
 20
313.50293
 10
1405.282227
 20
331.5
 10
1420.0
 20
331.5
  0
LWPOLYLINE
  5
62
100
AcDbEntity
  8
LAYER22
370
    18
390
0
  6
DASHED
 62
     1
100
AcDbPolyline
 90
        4
 70
     1
 10
295.0
 20
316.5
 10
1420.0
 20
316.5
 10
1420.0
 20
283.5
 10
295.0
 20
283.5
  0
LWPOLYLINE
  5
63
100
AcDbEntity
  8
LAYER22
370
    25
390
0
  6
Continuous
 62
     2
100
AcDbPolyline
 90
       16
 70
     1
 10
360.25882
 20
318.338867
 10
350.209167
 20
510.075684
 10
345.216003
 20
509.813965
 10
345.582397
 20
502.823578
 10
346.672699
 20
502.880707
 42
-1.0
 10
342.526062
 20
502.663361
 10
343.585144
 20
502.718872
 10
343.21875
 20
509.70929
 10
338.225616
 20
509.447571
 10
348.275269
 20
317.710754
 10
353.268402
 20
317.972473
 10
352.905792
 20
324.890717
 10
351.84671
 20
324.835205
 42
-1.035413
 10
355.993347
 20
325.052551
 10
354.903046
 20
324.995392
 10
355.265656
 20
318.077148
  0
LWPOLYLINE
  5
64
100
AcDbEntity
  8
LAYER22
370
    25
390
0
  6
Continuous
 62
     2
100
AcDbPolyline
 90
       16
 70
     1
 10
360.541962
 20
318.338867
 10
370.591614
 20
510.075684
 10
375.584778
 20
509.813965
 10
375.218384
 20
502.823578
 10
374.128082
 20
502.880707
 42
1.0
 10
378.274719
 20
502.663361
 10
377.215637
 20
502.718872
 10
377.582031
 20
509.70929
 10
382.575165
 20
509.447571
 10
372.525513
 20
317.710754
 10
367.532379
 20
317.972473
 10
367.894989
 20
324.890717
 10
368.954071
 20
324.835205
 42
1.035413
 10
364.807434
 20
325.052551
 10
365.897736
 20
324.995392
 10
365.535126
 20
318.077148
  0
LWPOLYLINE
  5
65
100
AcDbEntity
  8
LAYER22
370
    25
390
0
  6
Continuous
 62
     2
100
AcDbPolyline
 90
       21
 70
     0
 10
382.732422
 20
513.44873
 10
376.71875
 20
513.44873
 10
376.71875
 20
502.770996
 10
378.279297
 20
502.770508
 42
-0.999763
 10
374.158203
 20
502.770508
 10
375.71875
 20
502.770508
 10
375.71875
 20
512.72168
 10
370.219727
 20
509.621582
 10
369.588867
 20
510.397949
 10
376.766602
 20
514.737793
 10
376.766602
 20
518.402832
 10
374.742188
 20
519.817871
 10
374.743164
 20
521.770996
 10
375.240234
 20
522.270996
 10
382.71875
 20
522.270996
 10
382.71875
 20
521.270996
 10
375.708984
 20
521.270996
 10
375.708984
 20
520.279785
 10
377.851563
 20
518.581543
 10
377.851563
 20
514.737793
 10
382.732422
 20
514.737793
  0
LWPOLYLINE
  5
66
100
AcDbEntity
  8
LAYER22
370
    25
390
0
  6
Continuous
 62
     2
100
AcDbPolyline
 90
       21
 70
     0
 10
382.705078
 20
513.44873
 10
388.71875
 20
513.44873
 10
388.71875
 20
502.770996
 10
387.158203
 20
502.770508
 42
0.999763
 10
391.279297
 20
502.770508
 10
389.71875
 20
502.770508
 10
389.71875
 20
512.72168
 10
395.217773
 20
509.621582
 10
395.848633
 20
510.397949
 10
388.670898
 20
514.737793
 10
388.670898
 20
518.402832
 10
390.695313
 20
519.817871
 10
390.694336
 20
521.770996
 10
390.197266
 20
522.270996
 10
382.71875
 20
522.270996
 10
382.71875
 20
521.270996
 10
389.728516
 20
521.270996
 10
389.728516
 20
520.279785
 10
387.585938
 20
518.581543
 10
387.585938
 20
514.737793
 10
382.705078
 20
514.737793
  0
LWPOLYLINE
  5
67
100
AcDbEntity
  8
LAYER22
370
    25
390
0
  6
Continuous
 62
     2
100
AcDbPolyline
 90
       16
 70
     1
 10
404.891632
 20
318.338867
 10
394.84198
 20
510.075684
 10
389.848816
 20
509.813965
 10
390.21521
 20
502.823578
 10
391.305511
 20
502.880707
 42
-1.0
 10
387.158875
 20
502.663361
 10
388.217957
 20
502.718872
 10
387.851563
 20
509.70929
 10
382.858429
 20
509.447571
 10
392.908081
 20
317.710754
 10
397.901215
 20
317.972473
 10
397.538605
 20
324.890717
 10
396.479523
 20
324.835205
 42
-1.035413
 10
400.62616
 20
325.052551
 10
399.535858
 20
324.995392
 10
399.898468
 20
318.077148
  0
LWPOLYLINE
  5
68
100
AcDbEntity
  8
LAYER22
370
    25
390
0
  6
Continuous
 62
     2
100
AcDbPolyline
 90
       16
 70
     1
 10
315.909149
 20
281.661133
 10
325.958801
 20
89.924316
 10
330.951965
 20
90.186028
 10
330.585571
 20
97.17643
 10
329.49527
 20
97.119286
 42
-1.0
 10
333.641907
 20
97.336624
 10
332.582825
 20
97.281113
 10
332.949219
 20
90.29071
 10
337.942352
 20
90.552422
 10
327.8927
 20
282.289246
 10
322.899567
 20
282.027527
 10
323.262177
 20
275.109283
 10
324.321259
 20
275.164795
 42
-1.035413
 10
320.174622
 20
274.947449
 10
321.264923
 20
275.004608
 10
320.902313
 20
281.922852
  0
LWPOLYLINE
  5
69
100
AcDbEntity
  8
LAYER22
370
    25
390
0
  6
Continuous
 62
     2
100
AcDbPolyline
 90
       21
 70
     0
 10
338.099609
 20
86.55127
 10
332.085938
 20
86.55127
 10
332.085938
 20
97.229004
 10
333.646484
 20
97.229492
 42
0.999763
 10
329.525391
 20
97.229492
 10
331.085938
 20
97.229492
 10
331.085938
 20
87.27832
 10
325.586914
 20
90.378418
 10
324.956055
 20
89.602051
 10
332.133789
 20
85.262207
 10
332.133789
 20
81.597168
 10
330.109375
 20
80.182129
 10
330.110352
 20
78.229004
 10
330.607422
 20
77.729004
 10
338.085938
 20
77.729004
 10
338.085938
 20
78.729004
 10
331.076172
 20
78.729004
 10
331.076172
 20
79.720215
 10
333.21875
 20
81.418457
 10
333.21875
 20
85.262207
 10
338.099609
 20
85.262207
  0
LWPOLYLINE
  5
6A
100
AcDbEntity
  8
LAYER22
370
    25
390
0
  6
Continuous
 62
     2
100
AcDbPolyline
 90
       21
 70
     0
 10
338.072266
 20
86.55127
 10
344.085938
 20
86.55127
 10
344.085938
 20
97.229004
 10
342.525391
 20
97.229492
 42
-0.999763
 10
346.646484
 20
97.229492
 10
345.085938
 20
97.229492
 10
345.085938
 20
87.27832
 10
350.584961
 20
90.378418
 10
351.21582
 20
89.602051
 10
344.038086
 20
85.262207
 10
344.038086
 20
81.597168
 10
346.0625
 20
80.182129
 10
346.061523
 20
78.229004
 10
345.564453
 20
77.729004
 10
338.085938
 20
77.729004
 10
338.085938
 20
78.729004
 10
345.095703
 20
78.729004
 10
345.095703
 20
79.720215
 10
342.953125
 20
81.418457
 10
342.953125
 20
85.262207
 10
338.072266
 20
85.262207
  0
LWPOLYLINE
  5
6B
100
AcDbEntity
  8
LAYER22
370
    25
390
0
  6
Continuous
 62
     2
100
AcDbPolyline
 90
       13
 70
     0
 10
305.132813
 20
281.51416
 10
300.30957
 20
281.51416
 10
288.249023
 20
274.552246
 10
289.029297
 20
273.200195
 42
-1.0
 10
286.96875
 20
276.769531
 10
287.749023
 20
275.417969
 10
296.99707
 20
280.756348
 10
290.754883
 20
283.13916
 10
291.110352
 20
284.073242
 10
298.008789
 20
281.441406
 10
299.180664
 20
282.149902
 10
300.265625
 20
282.46582
 10
305.132813
 20
282.46582
  0
LWPOLYLINE
  5
6C
100
AcDbEntity
  8
LAYER22
370
    25
390
0
  6
Continuous
 62
     2
100
AcDbPolyline
 90
       13
 70
     0
 10
305.132813
 20
281.51416
 10
309.956055
 20
281.51416
 10
322.016602
 20
274.552246
 10
321.236328
 20
273.200195
 42
1.0
 10
323.296875
 20
276.769531
 10
322.516602
 20
275.417969
 10
313.268555
 20
280.756348
 10
319.510742
 20
283.13916
 10
319.155273
 20
284.073242
 10
312.256836
 20
281.441406
 10
311.084961
 20
282.149902
 10
310.0
 20
282.46582
 10
305.132813
 20
282.46582
  0
LWPOLYLINE
  5
6D
100
AcDbEntity
  8
LAYER22
370
    25
390
0
  6
Continuous
 62
     2
100
AcDbPolyline
 90
       11
 70
     0
 10
360.412109
 20
285.662598
 10
354.398438
 20
285.662598
 10
354.398438
 20
274.984863
 10
355.958984
 20
274.984375
 42
-0.999763
 10
351.837891
 20
274.984375
 10
353.398438
 20
274.984375
 10
353.398438
 20
284.935547
 10
347.899414
 20
281.835449
 10
347.268555
 20
282.611816
 10
354.446289
 20
286.95166
 10
360.412109
 20
286.95166
  0
LWPOLYLINE
  5
6E
100
AcDbEntity
  8
LAYER22
370
    25
390
0
  6
Continuous
 62
     2
100
AcDbPolyline
 90
       11
 70
     0
 10
360.384766
 20
285.662598
 10
366.398438
 20
285.662598
 10
366.398438
 20
274.984863
 10
364.837891
 20
274.984375
 42
0.999763
 10
368.958984
 20
274.984375
 10
367.398438
 20
274.984375
 10
367.398438
 20
284.935547
 10
372.897461
 20
281.835449
 10
373.52832
 20
282.611816
 10
366.350586
 20
286.95166
 10
360.384766
 20
286.95166
  0
LWPOLYLINE
  5
6F
100
AcDbEntity
  8
LAYER22
370
    25
390
0
  6
Continuous
 62
     2
100
AcDbPolyline
 90
       13
 70
     0
 10
415.667969
 20
281.51416
 10
410.844727
 20
281.51416
 10
398.78418
 20
274.552246
 10
399.564453
 20
273.200195
 42
-1.0
 10
397.503906
 20
276.769531
 10
398.28418
 20
275.417969
 10
407.532227
 20
280.756348
 10
401.290039
 20
283.13916
 10
401.645508
 20
284.073242
 10
408.543945
 20
281.441406
 10
409.71582
 20
282.149902
 10
410.800781
 20
282.46582
 10
415.667969
 20
282.46582
  0
LWPOLYLINE
  5
70
100
AcDbEntity
  8
LAYER22
370
    25
390
0
  6
Continuous
 62
     2
100
AcDbPolyline
 90
       13
 70
     0
 10
415.667969
 20
281.51416
 10
420.491211
 20
281.51416
 10
432.551758
 20
274.552246
 10
431.771484
 20
273.200195
 42
1.0
 10
433.832031
 20
276.769531
 10
433.051758
 20
275.417969
 10
423.803711
 20
280.756348
 10
430.045898
 20
283.13916
 10
429.69043
 20
284.073242
 10
422.791992
 20
281.441406
 10
421.620117
 20
282.149902
 10
420.535156
 20
282.46582
 10
415.667969
 20
282.46582
  0
LWPOLYLINE
  5
71
100
AcDbEntity
  8
LAYER22
370
    25
390
0
  6
Continuous
 62
     2
100
AcDbPolyline
 90
       16
 70
     1
 10
360.25882
 20
281.661133
 10
350.209167
 20
89.924316
 10
345.216003
 20
90.186028
 10
345.582397
 20
97.17643
 10
346.672699
 20
97.119286
 42
1.0
 10
342.526062
 20
97.336624
 10
343.585144
 20
97.281113
 10
343.21875
 20
90.29071
 10
338.225616
 20
90.552422
 10
348.275269
 20
282.289246
 10
353.268402
 20
282.027527
 10
352.905792
 20
275.109283
 10
351.84671
 20
275.164795
 42
1.035413
 10
355.993347
 20
274.947449
 10
354.903046
 20
275.004608
 10
355.265656
 20
281.922852
  0
LWPOLYLINE
  5
72
100
AcDbEntity
  8
LAYER22
370
    25
390
0
  6
Continuous
 62
     2
100
AcDbPolyline
 90
       16
 70
     1
 10
360.541962
 20
281.661133
 10
370.591614
 20
89.924316
 10
375.584778
 20
90.186028
 10
375.218384
 20
97.17643
 10
374.128082
 20
97.119286
 42
-1.0
 10
378.274719
 20
97.336624
 10
377.215637
 20
97.281113
 10
377.582031
 20
90.29071
 10
382.575165
 20
90.552422
 10
372.525513
 20
282.289246
 10
367.532379
 20
282.027527
 10
367.894989
 20
275.109283
 10
368.954071
 20
275.164795
 42
-1.035413
 10
364.807434
 20
274.947449
 10
365.897736
 20
275.004608
 10
365.535126
 20
281.922852
  0
LWPOLYLINE
  5
73
100
AcDbEntity
  8
LAYER22
370
    25
390
0
  6
Continuous
 62
     2
100
AcDbPolyline
 90
       21
 70
     0
 10
382.732422
 20
86.55127
 10
376.71875
 20
86.55127
 10
376.71875
 20
97.229004
 10
378.279297
 20
97.229492
 42
0.999763
 10
374.158203
 20
97.229492
 10
375.71875
 20
97.229492
 10
375.71875
 20
87.27832
 10
370.219727
 20
90.378418
 10
369.588867
 20
89.602051
 10
376.766602
 20
85.262207
 10
376.766602
 20
81.597168
 10
374.742188
 20
80.182129
 10
374.743164
 20
78.229004
 10
375.240234
 20
77.729004
 10
382.71875
 20
77.729004
 10
382.71875
 20
78.729004
 10
375.708984
 20
78.729004
 10
375.708984
 20
79.720215
 10
377.851563
 20
81.418457
 10
377.851563
 20
85.262207
 10
382.732422
 20
85.262207
  0
LWPOLYLINE
  5
74
100
AcDbEntity
  8
LAYER22
370
    25
390
0
  6
Continuous
 62
     2
100
AcDbPolyline
 90
       21
 70
     0
 10
382.705078
 20
86.55127
 10
388.71875
 20
86.55127
 10
388.71875
 20
97.229004
 10
387.158203
 20
97.229492
 42
-0.999763
 10
391.279297
 20
97.229492
 10
389.71875
 20
97.229492
 10
389.71875
 20
87.27832
 10
395.217773
 20
90.378418
 10
395.848633
 20
89.602051
 10
388.670898
 20
85.262207
 10
388.670898
 20
81.597168
 10
390.695313
 20
80.182129
 10
390.694336
 20
78.229004
 10
390.197266
 20
77.729004
 10
382.71875
 20
77.729004
 10
382.71875
 20
78.729004
 10
389.728516
 20
78.729004
 10
389.728516
 20
79.720215
 10
387.585938
 20
81.418457
 10
387.585938
 20
85.262207
 10
382.705078
 20
85.262207
  0
LWPOLYLINE
  5
75
100
AcDbEntity
  8
LAYER22
370
    25
390
0
  6
Continuous
 62
     2
100
AcDbPolyline
 90
       16
 70
     1
 10
404.891632
 20
281.661133
 10
394.84198
 20
89.924316
 10
389.848816
 20
90.186028
 10
390.21521
 20
97.17643
 10
391.305511
 20
97.119286
 42
1.0
 10
387.158875
 20
97.336624
 10
388.217957
 20
97.281113
 10
387.851563
 20
90.29071
 10
382.858429
 20
90.552422
 10
392.908081
 20
282.289246
 10
397.901215
 20
282.027527
 10
397.538605
 20
275.109283
 10
396.479523
 20
275.164795
 42
1.035413
 10
400.62616
 20
274.947449
 10
399.535858
 20
275.004608
 10
399.898468
 20
281.922852
  0
LWPOLYLINE
  5
76
100
AcDbEntity
  8
LAYER22
370
    25
390
0
  6
Continuous
 62
     2
100
AcDbPolyline
 90
       16
 70
     1
 10
314.120178
 20
-70.878555
 10
480.395264
 20
25.124544
 10
482.895355
 20
20.794464
 10
476.833221
 20
17.294352
 10
476.287323
 20
18.239864
 42
1.0
 10
478.363556
 20
14.643868
 10
477.833252
 20
15.562319
 10
483.895386
 20
19.062431
 10
486.395447
 20
14.732352
 10
320.120361
 20
-81.270752
 10
317.6203
 20
-76.940666
 10
323.619812
 20
-73.476692
 10
324.150116
 20
-74.395142
 42
1.035413
 10
322.073853
 20
-70.799141
 10
322.619781
 20
-71.744659
 10
316.620239
 20
-75.208633
  0
LWPOLYLINE
  5
77
100
AcDbEntity
  8
LAYER22
370
    25
390
0
  6
Continuous
 62
     2
100
AcDbPolyline
 90
       22
 70
     0
 10
494.46875
 20
22.958008
 10
489.645508
 20
22.958008
 10
477.584961
 20
15.995605
 10
478.365234
 20
14.643555
 42
-1.0
 10
476.304688
 20
18.212891
 10
477.084961
 20
16.861328
 10
486.333008
 20
22.200195
 10
480.09082
 20
24.583008
 10
480.446289
 20
25.51709
 10
487.344727
 20
22.885254
 10
488.516602
 20
23.59375
 10
488.516602
 20
27.258789
 10
486.492188
 20
28.673828
 10
486.493164
 20
30.626953
 10
486.990234
 20
31.126953
 10
494.46875
 20
31.126953
 10
494.46875
 20
30.126953
 10
487.458984
 20
30.126953
 10
487.458984
 20
29.135742
 10
489.601563
 20
27.4375
 10
489.601563
 20
23.909668
 10
494.46875
 20
23.909668
  0
LWPOLYLINE
  5
78
100
AcDbEntity
  8
LAYER22
370
    25
390
0
  6
Continuous
 62
     2
100
AcDbPolyline
 90
       22
 70
     0
 10
494.46875
 20
22.958008
 10
499.291992
 20
22.958008
 10
511.352539
 20
15.995605
 10
510.572266
 20
14.643555
 42
1.0
 10
512.632813
 20
18.212891
 10
511.852539
 20
16.861328
 10
502.604492
 20
22.200195
 10
508.84668
 20
24.583008
 10
508.491211
 20
25.51709
 10
501.592773
 20
22.885254
 10
500.420898
 20
23.59375
 10
500.420898
 20
27.258789
 10
502.445313
 20
28.673828
 10
502.444336
 20
30.626953
 10
501.947266
 20
31.126953
 10
494.46875
 20
31.126953
 10
494.46875
 20
30.126953
 10
501.478516
 20
30.126953
 10
501.478516
 20
29.135742
 10
499.335938
 20
27.4375
 10
499.335938
 20
23.909668
 10
494.46875
 20
23.909668
  0
LWPOLYLINE
  5
79
100
AcDbEntity
  8
LAYER22
370
    25
390
0
  6
Continuous
 62
     2
100
AcDbPolyline
 90
       13
 70
     0
 10
682.886719
 20
-79.103271
 10
678.063477
 20
-79.103271
 10
666.00293
 20
-72.140869
 10
666.783203
 20
-70.788818
 42
1.0
 10
664.722656
 20
-74.358154
 10
665.50293
 20
-73.006592
 10
674.750977
 20
-78.345459
 10
668.508789
 20
-80.728271
 10
668.864258
 20
-81.662354
 10
675.762695
 20
-79.030518
 10
676.93457
 20
-79.739014
 10
678.019531
 20
-80.054932
 10
682.886719
 20
-80.054932
  0
LWPOLYLINE
  5
7A
100
AcDbEntity
  8
LAYER22
370
    25
390
0
  6
Continuous
 62
     2
100
AcDbPolyline
 90
       13
 70
     0
 10
682.886719
 20
-79.103271
 10
687.709961
 20
-79.103271
 10
699.770508
 20
-72.140869
 10
698.990234
 20
-70.788818
 42
-1.0
 10
701.050781
 20
-74.358154
 10
700.270508
 20
-73.006592
 10
691.022461
 20
-78.345459
 10
697.264648
 20
-80.728271
 10
696.90918
 20
-81.662354
 10
690.010742
 20
-79.030518
 10
688.838867
 20
-79.739014
 10
687.753906
 20
-80.054932
 10
682.886719
 20
-80.054932
  0
LWPOLYLINE
  5
7B
100
AcDbEntity
  8
LAYER22
370
    18
390
0
  6
DASHED
 62
     1
100
AcDbPolyline
 90
        4
 70
     1
 10
308.136719
 20
-91.0
 10
308.136719
 20
-85.0
 10
332.136719
 20
-85.0
 10
332.136719
 20
-91.0
  0
LWPOLYLINE
  5
7C
100
AcDbEntity
  8
LAYER22
370
    18
390
0
  6
DASHED
 62
     1
100
AcDbPolyline
 90
        4
 70
     1
 10
313.636719
 20
-91.0
 10
326.636719
 20
-91.0
 10
326.636719
 20
-109.0
 10
313.636719
 20
-109.0
  0
LWPOLYLINE
  5
7D
100
AcDbEntity
  8
LAYER22
370
    18
390
0
  6
DASHED
 62
     1
100
AcDbPolyline
 90
        4
 70
     1
 10
308.136719
 20
-115.0
 10
308.136719
 20
-109.0
 10
332.136719
 20
-109.0
 10
332.136719
 20
-115.0
  0
CIRCLE
  5
7E
100
AcDbEntity
  8
LAYER22
390
0
  6
Continuous
 62
     1
100
AcDbCircle
 10
320.136719
 20
-100.0
 30
0.0
 40
6.0
  0
CIRCLE
  5
7F
100
AcDbEntity
  8
LAYER22
390
0
  6
Continuous
 62
     1
100
AcDbCircle
 10
320.136719
 20
-100.0
 30
0.0
 40
5.0
  0
LWPOLYLINE
  5
80
100
AcDbEntity
  8
LAYER22
370
    18
390
0
  6
DASHED
 62
     1
100
AcDbPolyline
 90
        2
 70
     0
 10
317.636719
 20
-104.330078
 10
322.636719
 20
-95.6698
  0
LWPOLYLINE
  5
81
100
AcDbEntity
  8
LAYER22
370
    18
390
0
  6
DASHED
 62
     1
100
AcDbPolyline
 90
        4
 70
     1
 10
656.675781
 20
-90.999023
 10
656.675781
 20
-84.999023
 10
680.675781
 20
-84.999023
 10
680.675781
 20
-90.999023
  0
LWPOLYLINE
  5
82
100
AcDbEntity
  8
LAYER22
370
    18
390
0
  6
DASHED
 62
     1
100
AcDbPolyline
 90
        4
 70
     1
 10
662.175781
 20
-90.999023
 10
675.175781
 20
-90.999023
 10
675.175781
 20
-108.999023
 10
662.175781
 20
-108.999023
  0
LWPOLYLINE
  5
83
100
AcDbEntity
  8
LAYER22
370
    18
390
0
  6
DASHED
 62
     1
100
AcDbPolyline
 90
        4
 70
     1
 10
656.675781
 20
-114.999023
 10
656.675781
 20
-108.999023
 10
680.675781
 20
-108.999023
 10
680.675781
 20
-114.999023
  0
CIRCLE
  5
84
100
AcDbEntity
  8
LAYER22
390
0
  6
Continuous
 62
     1
100
AcDbCircle
 10
668.675781
 20
-99.999023
 30
0.0
 40
6.0
  0
CIRCLE
  5
85
100
AcDbEntity
  8
LAYER22
390
0
  6
Continuous
 62
     1
100
AcDbCircle
 10
668.675781
 20
-99.999023
 30
0.0
 40
5.0
  0
LWPOLYLINE
  5
86
100
AcDbEntity
  8
LAYER22
370
    18
390
0
  6
DASHED
 62
     1
100
AcDbPolyline
 90
        2
 70
     0
 10
666.175781
 20
-104.329102
 10
671.175781
 20
-95.668823
  0
LWPOLYLINE
  5
87
100
AcDbEntity
  8
LAYER22
370
    25
390
0
  6
Continuous
 62
     2
100
AcDbPolyline
 90
       10
 70
     0
 10
310.874329
 20
-120.89592
 10
322.934998
 20
-127.858147
 10
322.154755
 20
-129.210205
 42
1.0
 10
324.21524
 20
-125.640839
 10
323.434967
 20
-126.992416
 10
314.186859
 20
-121.653687
 10
320.429016
 20
-119.270782
 10
320.073517
 20
-118.3367
 10
313.070618
 20
-121.008682
 10
310.874329
 20
-119.598068
  0
LWPOLYLINE
  5
88
100
AcDbEntity
  8
LAYER22
370
    25
390
0
  6
Continuous
 62
     2
100
AcDbPolyline
 90
       12
 70
     0
 10
310.874329
 20
-120.89592
 10
301.925201
 20
-125.514709
 10
288.000397
 20
-125.514923
 10
288.000397
 20
-127.075958
 42
-0.999763
 10
287.999359
 20
-122.954865
 10
288.000366
 20
-124.515411
 10
298.677612
 20
-124.514763
 10
294.462708
 20
-119.330742
 10
295.238556
 20
-118.699867
 10
299.966675
 20
-124.51474
 10
301.770386
 20
-124.514709
 10
310.874329
 20
-119.598068
  0
LWPOLYLINE
  5
89
100
AcDbEntity
  8
LAYER22
370
    25
390
0
  6
Continuous
 62
     2
100
AcDbPolyline
 90
       10
 70
     0
 10
310.874329
 20
-79.10408
 10
322.934998
 20
-72.141853
 10
322.154755
 20
-70.789795
 42
-1.0
 10
324.21524
 20
-74.359161
 10
323.434967
 20
-73.007584
 10
314.186859
 20
-78.346313
 10
320.429016
 20
-80.729218
 10
320.073517
 20
-81.6633
 10
313.070618
 20
-78.991318
 10
310.874329
 20
-80.401932
  0
LWPOLYLINE
  5
8A
100
AcDbEntity
  8
LAYER22
370
    25
390
0
  6
Continuous
 62
     2
100
AcDbPolyline
 90
       12
 70
     0
 10
310.874329
 20
-79.10408
 10
301.925201
 20
-74.485291
 10
288.000397
 20
-74.485077
 10
288.000397
 20
-72.924042
 42
0.999763
 10
287.999359
 20
-77.045135
 10
288.000366
 20
-75.484589
 10
298.677612
 20
-75.485237
 10
294.462708
 20
-80.669258
 10
295.238556
 20
-81.300133
 10
299.966675
 20
-75.48526
 10
301.770386
 20
-75.485291
 10
310.874329
 20
-80.401932
  0
LWPOLYLINE
  5
8B
100
AcDbEntity
  8
LAYER22
370
    18
390
0
  6
DASHED
 62
     1
100
AcDbPolyline
 90
        4
 70
     1
 10
685.097656
 20
-90.999023
 10
685.097656
 20
-84.999023
 10
709.097656
 20
-84.999023
 10
709.097656
 20
-90.999023
  0
LWPOLYLINE
  5
8C
100
AcDbEntity
  8
LAYER22
370
    18
390
0
  6
DASHED
 62
     1
100
AcDbPolyline
 90
        4
 70
     1
 10
690.597656
 20
-90.999023
 10
703.597656
 20
-90.999023
 10
703.597656
 20
-108.999023
 10
690.597656
 20
-108.999023
  0
LWPOLYLINE
  5
8D
100
AcDbEntity
  8
LAYER22
370
    18
390
0
  6
DASHED
 62
     1
100
AcDbPolyline
 90
        4
 70
     1
 10
685.097656
 20
-114.999023
 10
685.097656
 20
-108.999023
 10
709.097656
 20
-108.999023
 10
709.097656
 20
-114.999023
  0
CIRCLE
  5
8E
100
AcDbEntity
  8
LAYER22
390
0
  6
Continuous
 62
     1
100
AcDbCircle
 10
697.097656
 20
-99.999023
 30
0.0
 40
6.0
  0
CIRCLE
  5
8F
100
AcDbEntity
  8
LAYER22
390
0
  6
Continuous
 62
     1
100
AcDbCircle
 10
697.097656
 20
-99.999023
 30
0.0
 40
5.0
  0
LWPOLYLINE
  5
90
100
AcDbEntity
  8
LAYER22
370
    18
390
0
  6
DASHED
 62
     1
100
AcDbPolyline
 90
        2
 70
     0
 10
694.597656
 20
-104.329102
 10
699.597656
 20
-95.668823
  0
LWPOLYLINE
  5
91
100
AcDbEntity
  8
LAYER22
370
    25
390
0
  6
Continuous
 62
     2
100
AcDbPolyline
 90
       10
 70
     0
 10
1054.899048
 20
-120.89592
 10
1042.838501
 20
-127.858139
 10
1043.618652
 20
-129.210205
 42
-1.0
 10
1041.558228
 20
-125.640839
 10
1042.338501
 20
-126.992409
 10
1051.586548
 20
-121.653687
 10
1045.344482
 20
-119.270775
 10
1045.699951
 20
-118.3367
 10
1052.702759
 20
-121.008682
 10
1054.89917
 20
-119.598068
  0
LWPOLYLINE
  5
92
100
AcDbEntity
  8
LAYER22
370
    25
390
0
  6
Continuous
 62
     2
100
AcDbPolyline
 90
       12
 70
     0
 10
1054.899048
 20
-120.89592
 10
1063.848267
 20
-125.514709
 10
1077.773071
 20
-125.514923
 10
1077.773071
 20
-127.075958
 42
0.999763
 10
1077.774048
 20
-122.954865
 10
1077.773071
 20
-124.515411
 10
1067.095825
 20
-124.514763
 10
1071.310791
 20
-119.330742
 10
1070.534912
 20
-118.699875
 10
1065.806763
 20
-124.51474
 10
1064.003052
 20
-124.514717
 10
1054.89917
 20
-119.598068
  0
LWPOLYLINE
  5
93
100
AcDbEntity
  8
LAYER22
370
    25
390
0
  6
Continuous
 62
     2
100
AcDbPolyline
 90
       10
 70
     0
 10
1054.899048
 20
-79.10408
 10
1042.838501
 20
-72.141853
 10
1043.618652
 20
-70.789795
 42
1.0
 10
1041.558228
 20
-74.359161
 10
1042.338501
 20
-73.007584
 10
1051.586548
 20
-78.346313
 10
1045.344482
 20
-80.729218
 10
1045.699951
 20
-81.6633
 10
1052.702759
 20
-78.991318
 10
1054.89917
 20
-80.401932
  0
LWPOLYLINE
  5
94
100
AcDbEntity
  8
LAYER22
370
    25
390
0
  6
Continuous
 62
     2
100
AcDbPolyline
 90
       12
 70
     0
 10
1054.899048
 20
-79.10408
 10
1063.848267
 20
-74.485291
 10
1077.773071
 20
-74.485077
 10
1077.773071
 20
-72.924042
 42
-0.999763
 10
1077.774048
 20
-77.045135
 10
1077.773071
 20
-75.484589
 10
1067.095825
 20
-75.485237
 10
1071.310791
 20
-80.669258
 10
1070.534912
 20
-81.300133
 10
1065.806763
 20
-75.48526
 10
1064.003052
 20
-75.485291
 10
1054.89917
 20
-80.401932
  0
LWPOLYLINE
  5
95
100
AcDbEntity
  8
LAYER22
370
    25
390
0
  6
Continuous
 62
     2
100
AcDbPolyline
 90
        4
 70
     1
 10
1070.771484
 20
-116.5
 10
1070.771484
 20
-83.5
 10
1173.771484
 20
-83.5
 10
1173.771484
 20
-116.5
  0
LWPOLYLINE
  5
96
100
AcDbEntity
  8
LAYER22
370
    25
390
0
  6
Continuous
 62
     2
100
AcDbPolyline
 90
       10
 70
     1
 10
1070.771484
 20
-69.0
 10
1070.771484
 20
-74.0
 10
1077.771484
 20
-74.0
 10
1077.771484
 20
-72.90918
 42
-1.0
 10
1077.771484
 20
-77.060547
 10
1077.771484
 20
-76.0
 10
1070.771484
 20
-76.0
 10
1070.771484
 20
-81.0
 10
1195.771484
 20
-81.0
 10
1195.771484
 20
-69.0
  0
LWPOLYLINE
  5
97
100
AcDbEntity
  8
LAYER22
370
    25
390
0
  6
Continuous
 62
     2
100
AcDbPolyline
 90
       10
 70
     1
 10
1070.771484
 20
-119.0
 10
1070.771484
 20
-124.0
 10
1077.771484
 20
-124.0
 10
1077.771484
 20
-122.90918
 42
-1.0
 10
1077.771484
 20
-127.060547
 10
1077.771484
 20
-126.0
 10
1070.771484
 20
-126.0
 10
1070.771484
 20
-131.0
 10
1195.771484
 20
-131.0
 10
1195.771484
 20
-119.0
  0
LWPOLYLINE
  5
98
100
AcDbEntity
  8
LAYER22
370
    35
390
0
  6
Continuous
 62
     4
100
AcDbPolyline
 90
        6
 70
     0
 10
1195.771484
 20
-69.0
 10
1195.771484
 20
-86.594727
 10
1173.771484
 20
-90.875
 10
1173.771484
 20
-109.125
 10
1195.771484
 20
-113.405273
 10
1195.771484
 20
-131.0
  0
LWPOLYLINE
  5
99
100
AcDbEntity
  8
LAYER22
370
    25
390
0
  6
Continuous
 62
     2
100
AcDbPolyline
 90
        8
 70
     1
 10
1196.271484
 20
-70.561523
 10
1198.167969
 20
-70.561523
 42
-0.5275
 10
1198.167969
 20
-85.09375
 10
1196.466797
 20
-85.093262
 10
1196.466797
 20
-83.055664
 10
1198.167969
 20
-83.055664
 42
0.686995
 10
1198.167969
 20
-72.599609
 10
1196.271484
 20
-72.599121
  0
LWPOLYLINE
  5
9A
100
AcDbEntity
  8
LAYER22
370
    25
390
0
  6
Continuous
 62
     2
100
AcDbPolyline
 90
       14
 70
     1
 10
1190.363281
 20
-68.5
 10
1196.271484
 20
-68.5
 10
1196.271484
 20
-70.061523
 10
1198.167969
 20
-70.061523
 10
1198.167969
 20
-70.561523
 10
1196.271484
 20
-70.561523
 10
1196.271484
 20
-72.599121
 10
1198.167969
 20
-72.599121
 10
1198.167969
 20
-73.099121
 10
1196.271484
 20
-73.099121
 10
1196.271484
 20
-74.020996
 10
1195.771484
 20
-74.020996
 10
1195.771484
 20
-69.0
 10
1190.363281
 20
-69.0
  0
LWPOLYLINE
  5
9B
100
AcDbEntity
  8
LAYER22
370
    25
390
0
  6
Continuous
 62
     2
100
AcDbPolyline
 90
       12
 70
     1
 10
1196.271484
 20
-86.655273
 10
1196.271484
 20
-85.59375
 10
1198.167969
 20
-85.59375
 10
1198.167969
 20
-85.09375
 10
1196.271484
 20
-85.09375
 10
1196.271484
 20
-83.056152
 10
1198.167969
 20
-83.056152
 10
1198.167969
 20
-82.556152
 10
1196.271484
 20
-82.556152
 10
1196.271484
 20
-81.634277
 10
1195.771484
 20
-81.634277
 10
1195.771484
 20
-86.655273
  0
LWPOLYLINE
  5
9C
100
AcDbEntity
  8
LAYER22
370
    25
390
0
  6
Continuous
 62
     2
100
AcDbPolyline
 90
        8
 70
     1
 10
1196.271484
 20
-129.438477
 10
1198.167969
 20
-129.438477
 42
0.5275
 10
1198.167969
 20
-114.90625
 10
1196.466797
 20
-114.906738
 10
1196.466797
 20
-116.944336
 10
1198.167969
 20
-116.944336
 42
-0.686995
 10
1198.167969
 20
-127.400391
 10
1196.271484
 20
-127.400879
  0
LWPOLYLINE
  5
9D
100
AcDbEntity
  8
LAYER22
370
    25
390
0
  6
Continuous
 62
     2
100
AcDbPolyline
 90
       14
 70
     1
 10
1190.363281
 20
-131.5
 10
1196.271484
 20
-131.5
 10
1196.271484
 20
-129.938477
 10
1198.167969
 20
-129.938477
 10
1198.167969
 20
-129.438477
 10
1196.271484
 20
-129.438477
 10
1196.271484
 20
-127.400879
 10
1198.167969
 20
-127.400879
 10
1198.167969
 20
-126.900879
 10
1196.271484
 20
-126.900879
 10
1196.271484
 20
-125.979004
 10
1195.771484
 20
-125.979004
 10
1195.771484
 20
-131.0
 10
1190.363281
 20
-131.0
  0
LWPOLYLINE
  5
9E
100
AcDbEntity
  8
LAYER22
370
    25
390
0
  6
Continuous
 62
     2
100
AcDbPolyline
 90
       12
 70
     1
 10
1196.271484
 20
-113.344727
 10
1196.271484
 20
-114.40625
 10
1198.167969
 20
-114.40625
 10
1198.167969
 20
-114.90625
 10
1196.271484
 20
-114.90625
 10
1196.271484
 20
-116.943848
 10
1198.167969
 20
-116.943848
 10
1198.167969
 20
-117.443848
 10
1196.271484
 20
-117.443848
 10
1196.271484
 20
-118.365723
 10
1195.771484
 20
-118.365723
 10
1195.771484
 20
-113.344727
  0
LWPOLYLINE
  5
9F
100
AcDbEntity
  8
LAYER22
370
    25
390
0
  6
Continuous
 62
     2
100
AcDbPolyline
 90
        4
 70
     1
 10
170.0
 20
-116.5
 10
170.0
 20
-83.5
 10
295.0
 20
-83.5
 10
295.0
 20
-116.5
  0
LWPOLYLINE
  5
A0
100
AcDbEntity
  8
LAYER22
370
    25
390
0
  6
Continuous
 62
     2
100
AcDbPolyline
 90
       10
 70
     1
 10
295.0
 20
-69.0
 10
295.0
 20
-74.0
 10
288.0
 20
-74.0
 10
288.0
 20
-72.90918
 42
1.0
 10
288.0
 20
-77.060547
 10
288.0
 20
-76.0
 10
295.0
 20
-76.0
 10
295.0
 20
-81.0
 10
170.0
 20
-81.0
 10
170.0
 20
-69.0
  0
LWPOLYLINE
  5
A1
100
AcDbEntity
  8
LAYER22
370
    25
390
0
  6
Continuous
 62
     2
100
AcDbPolyline
 90
       10
 70
     1
 10
295.0
 20
-119.0
 10
295.0
 20
-124.0
 10
288.0
 20
-124.0
 10
288.0
 20
-122.90918
 42
1.0
 10
288.0
 20
-127.060547
 10
288.0
 20
-126.0
 10
295.0
 20
-126.0
 10
295.0
 20
-131.0
 10
170.0
 20
-131.0
 10
170.0
 20
-119.0
  0
LWPOLYLINE
  5
A2
100
AcDbEntity
  8
LAYER22
370
    35
390
0
  6
Continuous
 62
     4
100
AcDbPolyline
 90
        8
 70
     0
 10
1420.0
 20
-131.0
 10
1405.300781
 20
-131.0
 10
1405.300781
 20
-113.405273
 10
1383.10791
 20
-109.223633
 10
1383.10791
 20
-90.776855
 10
1405.282227
 20
-86.49707
 10
1405.282227
 20
-68.5
 10
1420.0
 20
-68.5
  0
LWPOLYLINE
  5
A3
100
AcDbEntity
  8
LAYER22
370
    18
390
0
  6
DASHED
 62
     1
100
AcDbPolyline
 90
        4
 70
     1
 10
295.0
 20
-83.5
 10
1420.0
 20
-83.5
 10
1420.0
 20
-116.5
 10
295.0
 20
-116.5
  0
LWPOLYLINE
  5
A4
100
AcDbEntity
  8
LAYER22
370
    13
390
0
  6
DASHDOT
 62
     5
100
AcDbPolyline
 90
        2
 70
     0
 10
170.0
 20
-100.0
 10
1420.0
 20
-100.0
  0
LWPOLYLINE
  5
A5
100
AcDbEntity
  8
LAYER22
370
    25
390
0
  6
Continuous
 62
     2
100
AcDbPolyline
 90
       16
 70
     1
 10
674.817322
 20
-70.878555
 10
508.542236
 20
25.124544
 10
506.042145
 20
20.794464
 10
512.104248
 20
17.294352
 10
512.650208
 20
18.239864
 42
-1.0
 10
510.573944
 20
14.643868
 10
511.104248
 20
15.562319
 10
505.042114
 20
19.062431
 10
502.542053
 20
14.732352
 10
668.817139
 20
-81.270752
 10
671.3172
 20
-76.940666
 10
665.317688
 20
-73.476692
 10
664.787415
 20
-74.395142
 42
-1.035413
 10
666.863647
 20
-70.799141
 10
666.317688
 20
-71.744659
 10
672.317261
 20
-75.208633
  0
LWPOLYLINE
  5
A6
100
AcDbEntity
  8
LAYER22
370
    25
390
0
  6
Continuous
 62
     2
100
AcDbPolyline
 90
       16
 70
     1
 10
690.956116
 20
-70.877579
 10
857.231201
 20
25.125521
 10
859.731262
 20
20.795441
 10
853.669189
 20
17.295328
 10
853.12323
 20
18.240841
 42
1.0
 10
855.199463
 20
14.644845
 10
854.669189
 20
15.563295
 10
860.731323
 20
19.063408
 10
863.231384
 20
14.733329
 10
696.956299
 20
-81.269775
 10
694.456238
 20
-76.93969
 10
700.45575
 20
-73.475716
 10
700.986023
 20
-74.394165
 42
1.035413
 10
698.90979
 20
-70.798164
 10
699.45575
 20
-71.743683
 10
693.456177
 20
-75.207657
  0
LWPOLYLINE
  5
A7
100
AcDbEntity
  8
LAYER22
370
    25
390
0
  6
Continuous
 62
     2
100
AcDbPolyline
 90
       22
 70
     0
 10
871.304688
 20
22.958984
 10
866.481445
 20
22.958984
 10
854.420898
 20
15.996582
 10
855.201172
 20
14.644531
 42
-1.0
 10
853.140625
 20
18.213867
 10
853.920898
 20
16.862305
 10
863.168945
 20
22.201172
 10
856.926758
 20
24.583984
 10
857.282227
 20
25.518066
 10
864.180664
 20
22.88623
 10
865.352539
 20
23.594727
 10
865.352539
 20
27.259766
 10
863.328125
 20
28.674805
 10
863.329102
 20
30.62793
 10
863.826172
 20
31.12793
 10
871.304688
 20
31.12793
 10
871.304688
 20
30.12793
 10
864.294922
 20
30.12793
 10
864.294922
 20
29.136719
 10
866.4375
 20
27.438477
 10
866.4375
 20
23.910645
 10
871.304688
 20
23.910645
  0
LWPOLYLINE
  5
A8
100
AcDbEntity
  8
LAYER22
370
    25
390
0
  6
Continuous
 62
     2
100
AcDbPolyline
 90
       22
 70
     0
 10
871.304688
 20
22.958984
 10
876.12793
 20
22.958984
 10
888.188477
 20
15.996582
 10
887.408203
 20
14.644531
 42
1.0
 10
889.46875
 20
18.213867
 10
888.688477
 20
16.862305
 10
879.44043
 20
22.201172
 10
885.682617
 20
24.583984
 10
885.327148
 20
25.518066
 10
878.428711
 20
22.88623
 10
877.256836
 20
23.594727
 10
877.256836
 20
27.259766
 10
879.28125
 20
28.674805
 10
879.280273
 20
30.62793
 10
878.783203
 20
31.12793
 10
871.304688
 20
31.12793
 10
871.304688
 20
30.12793
 10
878.314453
 20
30.12793
 10
878.314453
 20
29.136719
 10
876.171875
 20
27.438477
 10
876.171875
 20
23.910645
 10
871.304688
 20
23.910645
  0
LWPOLYLINE
  5
A9
100
AcDbEntity
  8
LAYER22
370
    25
390
0
  6
Continuous
 62
     2
100
AcDbPolyline
 90
       16
 70
     1
 10
1051.65332
 20
-70.877579
 10
885.378174
 20
25.125521
 10
882.878113
 20
20.795441
 10
888.940186
 20
17.295328
 10
889.486145
 20
18.240841
 42
-1.0
 10
887.409912
 20
14.644845
 10
887.940186
 20
15.563295
 10
881.878052
 20
19.063408
 10
879.377991
 20
14.733329
 10
1045.653076
 20
-81.269775
 10
1048.153198
 20
-76.93969
 10
1042.153564
 20
-73.475716
 10
1041.623291
 20
-74.394165
 42
-1.035413
 10
1043.699585
 20
-70.798164
 10
1043.153687
 20
-71.743683
 10
1049.153198
 20
-75.207657
  0
LWPOLYLINE
  5
AA
100
AcDbEntity
  8
LAYER22
370
    25
390
0
  6
Continuous
 62
     2
100
AcDbPolyline
 90
       16
 70
     1
 10
314.120178
 20
-129.121445
 10
480.395264
 20
-225.124542
 10
482.895355
 20
-220.794464
 10
476.833221
 20
-217.294357
 10
476.287323
 20
-218.239868
 42
-1.0
 10
478.363556
 20
-214.643875
 10
477.833252
 20
-215.562317
 10
483.895386
 20
-219.062439
 10
486.395447
 20
-214.732346
 10
320.120361
 20
-118.729248
 10
317.6203
 20
-123.059334
 10
323.619812
 20
-126.523308
 10
324.150116
 20
-125.604858
 42
-1.035413
 10
322.073853
 20
-129.200851
 10
322.619781
 20
-128.255341
 10
316.620239
 20
-124.791367
  0
LWPOLYLINE
  5
AB
100
AcDbEntity
  8
LAYER22
370
    25
390
0
  6
Continuous
 62
     2
100
AcDbPolyline
 90
       22
 70
     0
 10
494.46875
 20
-222.958008
 10
489.645508
 20
-222.958008
 10
477.584961
 20
-215.995605
 10
478.365234
 20
-214.643555
 42
1.0
 10
476.304688
 20
-218.212891
 10
477.084961
 20
-216.861328
 10
486.333008
 20
-222.200195
 10
480.09082
 20
-224.583008
 10
480.446289
 20
-225.51709
 10
487.344727
 20
-222.885254
 10
488.516602
 20
-223.59375
 10
488.516602
 20
-227.258789
 10
486.492188
 20
-228.673828
 10
486.493164
 20
-230.626953
 10
486.990234
 20
-231.126953
 10
494.46875
 20
-231.126953
 10
494.46875
 20
-230.126953
 10
487.458984
 20
-230.126953
 10
487.458984
 20
-229.135742
 10
489.601563
 20
-227.4375
 10
489.601563
 20
-223.909668
 10
494.46875
 20
-223.909668
  0
LWPOLYLINE
  5
AC
100
AcDbEntity
  8
LAYER22
370
    25
390
0
  6
Continuous
 62
     2
100
AcDbPolyline
 90
       22
 70
     0
 10
494.46875
 20
-222.958008
 10
499.291992
 20
-222.958008
 10
511.352539
 20
-215.995605
 10
510.572266
 20
-214.643555
 42
-1.0
 10
512.632813
 20
-218.212891
 10
511.852539
 20
-216.861328
 10
502.604492
 20
-222.200195
 10
508.84668
 20
-224.583008
 10
508.491211
 20
-225.51709
 10
501.592773
 20
-222.885254
 10
500.420898
 20
-223.59375
 10
500.420898
 20
-227.258789
 10
502.445313
 20
-228.673828
 10
502.444336
 20
-230.626953
 10
501.947266
 20
-231.126953
 10
494.46875
 20
-231.126953
 10
494.46875
 20
-230.126953
 10
501.478516
 20
-230.126953
 10
501.478516
 20
-229.135742
 10
499.335938
 20
-227.4375
 10
499.335938
 20
-223.909668
 10
494.46875
 20
-223.909668
  0
LWPOLYLINE
  5
AD
100
AcDbEntity
  8
LAYER22
370
    25
390
0
  6
Continuous
 62
     2
100
AcDbPolyline
 90
       13
 70
     0
 10
682.886719
 20
-120.896729
 10
678.063477
 20
-120.896729
 10
666.00293
 20
-127.859131
 10
666.783203
 20
-129.211182
 42
-1.0
 10
664.722656
 20
-125.641846
 10
665.50293
 20
-126.993408
 10
674.750977
 20
-121.654541
 10
668.508789
 20
-119.271729
 10
668.864258
 20
-118.337646
 10
675.762695
 20
-120.969482
 10
676.93457
 20
-120.260986
 10
678.019531
 20
-119.945068
 10
682.886719
 20
-119.945068
  0
LWPOLYLINE
  5
AE
100
AcDbEntity
  8
LAYER22
370
    25
390
0
  6
Continuous
 62
     2
100
AcDbPolyline
 90
       13
 70
     0
 10
682.886719
 20
-120.896729
 10
687.709961
 20
-120.896729
 10
699.770508
 20
-127.859131
 10
698.990234
 20
-129.211182
 42
1.0
 10
701.050781
 20
-125.641846
 10
700.270508
 20
-126.993408
 10
691.022461
 20
-121.654541
 10
697.264648
 20
-119.271729
 10
696.90918
 20
-118.337646
 10
690.010742
 20
-120.969482
 10
688.838867
 20
-120.260986
 10
687.753906
 20
-119.945068
 10
682.886719
 20
-119.945068
  0
LWPOLYLINE
  5
AF
100
AcDbEntity
  8
LAYER22
370
    25
390
0
  6
Continuous
 62
     2
100
AcDbPolyline
 90
       16
 70
     1
 10
674.817322
 20
-129.121445
 10
508.542236
 20
-225.124542
 10
506.042145
 20
-220.794464
 10
512.104248
 20
-217.294357
 10
512.650208
 20
-218.239868
 42
1.0
 10
510.573944
 20
-214.643875
 10
511.104248
 20
-215.562317
 10
505.042114
 20
-219.062439
 10
502.542053
 20
-214.732346
 10
668.817139
 20
-118.729248
 10
671.3172
 20
-123.059334
 10
665.317688
 20
-126.523308
 10
664.787415
 20
-125.604858
 42
1.035413
 10
666.863647
 20
-129.200851
 10
666.317688
 20
-128.255341
 10
672.317261
 20
-124.791367
  0
LWPOLYLINE
  5
B0
100
AcDbEntity
  8
LAYER22
370
    25
390
0
  6
Continuous
 62
     2
100
AcDbPolyline
 90
       16
 70
     1
 10
690.956116
 20
-129.122421
 10
857.231201
 20
-225.125519
 10
859.731262
 20
-220.795441
 10
853.669189
 20
-217.295334
 10
853.12323
 20
-218.240845
 42
-1.0
 10
855.199463
 20
-214.644852
 10
854.669189
 20
-215.563293
 10
860.731323
 20
-219.063416
 10
863.231384
 20
-214.733322
 10
696.956299
 20
-118.730225
 10
694.456238
 20
-123.06031
 10
700.45575
 20
-126.524284
 10
700.986023
 20
-125.605835
 42
-1.035413
 10
698.90979
 20
-129.201828
 10
699.45575
 20
-128.256317
 10
693.456177
 20
-124.792343
  0
LWPOLYLINE
  5
B1
100
AcDbEntity
  8
LAYER22
370
    25
390
0
  6
Continuous
 62
     2
100
AcDbPolyline
 90
       22
 70
     0
 10
871.304688
 20
-222.958984
 10
866.481445
 20
-222.958984
 10
854.420898
 20
-215.996582
 10
855.201172
 20
-214.644531
 42
1.0
 10
853.140625
 20
-218.213867
 10
853.920898
 20
-216.862305
 10
863.168945
 20
-222.201172
 10
856.926758
 20
-224.583984
 10
857.282227
 20
-225.518066
 10
864.180664
 20
-222.88623
 10
865.352539
 20
-223.594727
 10
865.352539
 20
-227.259766
 10
863.328125
 20
-228.674805
 10
863.329102
 20
-230.62793
 10
863.826172
 20
-231.12793
 10
871.304688
 20
-231.12793
 10
871.304688
 20
-230.12793
 10
864.294922
 20
-230.12793
 10
864.294922
 20
-229.136719
 10
866.4375
 20
-227.438477
 10
866.4375
 20
-223.910645
 10
871.304688
 20
-223.910645
  0
LWPOLYLINE
  5
B2
100
AcDbEntity
  8
LAYER22
370
    25
390
0
  6
Continuous
 62
     2
100
AcDbPolyline
 90
       22
 70
     0
 10
871.304688
 20
-222.958984
 10
876.12793
 20
-222.958984
 10
888.188477
 20
-215.996582
 10
887.408203
 20
-214.644531
 42
-1.0
 10
889.46875
 20
-218.213867
 10
888.688477
 20
-216.862305
 10
879.44043
 20
-222.201172
 10
885.682617
 20
-224.583984
 10
885.327148
 20
-225.518066
 10
878.428711
 20
-222.88623
 10
877.256836
 20
-223.594727
 10
877.256836
 20
-227.259766
 10
879.28125
 20
-228.674805
 10
879.280273
 20
-230.62793
 10
878.783203
 20
-231.12793
 10
871.304688
 20
-231.12793
 10
871.304688
 20
-230.12793
 10
878.314453
 20
-230.12793
 10
878.314453
 20
-229.136719
 10
876.171875
 20
-227.438477
 10
876.171875
 20
-223.910645
 10
871.304688
 20
-223.910645
  0
LWPOLYLINE
  5
B3
100
AcDbEntity
  8
LAYER22
370
    25
390
0
  6
Continuous
 62
     2
100
AcDbPolyline
 90
       16
 70
     1
 10
1051.65332
 20
-129.122421
 10
885.378174
 20
-225.125519
 10
882.878113
 20
-220.795441
 10
888.940186
 20
-217.295334
 10
889.486145
 20
-218.240845
 42
1.0
 10
887.409912
 20
-214.644852
 10
887.940186
 20
-215.563293
 10
881.878052
 20
-219.063416
 10
879.377991
 20
-214.733322
 10
1045.653076
 20
-118.730225
 10
1048.153198
 20
-123.06031
 10
1042.153564
 20
-126.524284
 10
1041.623291
 20
-125.605835
 42
1.035413
 10
1043.699585
 20
-129.201828
 10
1043.153687
 20
-128.256317
 10
1049.153198
 20
-124.792343
  0
ENDSEC
  0
SECTION
  2
OBJECTS
  0
DICTIONARY
  5
19
100
AcDbDictionary
280
     0
281
     1
  3
ACAD_GROUP
350
1A
  3
ACAD_MLINESTYLE
350
1B
  3
ACAD_LAYOUT
350
1E
  3
ACAD_PLOTSETTINGS
350
22
  3
ACAD_PLOTSTYLENAME
350
1F
  3
ACAD_WIPEOUT_VARS
350
23
  0
DICTIONARY
  5
1A
102
{ACAD_REACTORS
330
19
102
}
100
AcDbDictionary
280
     0
281
     1
  0
DICTIONARY
  5
1B
102
{ACAD_REACTORS
330
19
102
}
100
AcDbDictionary
280
     0
281
     1
  3
Standard
350
1C
  0
MLINESTYLE
  5
1C
102
{ACAD_REACTORS
330
1B
102
}
100
AcDbMlineStyle
  2
Standard
 70
     0
  3

 62
     0
 51
90.0
 52
90.0
 71
     2
 49
0.5
 62
   256
  6
ByLayer
 49
-0.5
 62
   256
  6
ByLayer
  0
ACDBDICTIONARYWDFLT
  5
1F
102
{ACAD_REACTORS
330
19
102
}
100
AcDbDictionary
281
     1
  3
Normal
350
1D
100
AcDbDictionaryWithDefault
340
1D
  0
ACDBPLACEHOLDER
  5
1D
102
{ACAD_REACTORS
330
1F
102
}
  0
LAYOUT
  5
20
102
{ACAD_REACTORS
330
1E
102
}
100
AcDbPlotSettings
  1

  2

  4

  6

 40
0.0
 41
0.0
 42
0.0
 43
0.0
 44
0.0
 45
0.0
 46
0.0
 47
0.0
 48
0.0
 49
0.0
140
0.0
141
0.0
142
1.0
143
1.0
 70
  1024
 72
     0
 73
     0
 74
     0
  7

 75
     0
147
1.0
148
0.0
149
0.0
100
AcDbLayout
  1
Model
 70
     0
 71
     0
 10
0.0
 20
0.0
 11
0.0
 21
0.0
 12
0.0
 22
0.0
 32
0.0
 14
0.0
 24
0.0
 34
0.0
 15
0.0
 25
0.0
 35
0.0
146
0.0
 13
0.0
 23
0.0
 33
0.0
 16
0.0
 26
0.0
 36
0.0
 17
0.0
 27
0.0
 37
0.0
 76
     0
330
A
331
0
345
0
346
0
  0
LAYOUT
  5
21
102
{ACAD_REACTORS
330
1E
102
}
100
AcDbPlotSettings
  1

  2

  4

  6

 40
0.0
 41
0.0
 42
0.0
 43
0.0
 44
0.0
 45
0.0
 46
0.0
 47
0.0
 48
0.0
 49
0.0
140
0.0
141
0.0
142
1.0
143
1.0
 70
     0
 72
     0
 73
     0
 74
     0
  7

 75
     0
147
1.0
148
0.0
149
0.0
100
AcDbLayout
  1
Layout1
 70
     0
 71
     0
 10
0.0
 20
0.0
 11
0.0
 21
0.0
 12
0.0
 22
0.0
 32
0.0
 14
0.0
 24
0.0
 34
0.0
 15
0.0
 25
0.0
 35
0.0
146
0.0
 13
0.0
 23
0.0
 33
0.0
 16
0.0
 26
0.0
 36
0.0
 17
0.0
 27
0.0
 37
0.0
 76
     0
330
B
331
0
345
0
346
0
  0
DICTIONARY
  5
1E
102
{ACAD_REACTORS
330
19
102
}
100
AcDbDictionary
280
     0
281
     1
  3
Layout1
350
21
  3
Model
350
20
  0
DICTIONARY
  5
22
102
{ACAD_REACTORS
330
19
102
}
100
AcDbDictionary
280
     0
281
     1
  0
WIPEOUTVARIABLES
  5
23
100
AcDbWipeoutVariables
 70
     1
  0
ENDSEC
  0
EOF
