  0
SECTION
  2
HEADER
  9
$ACADVER
  1
AC1015
  9
$ACADMAINTVER
 70
     6
  9
$DWGCODEPAGE
  3
ANSI_1252
  9
$INSBASE
 10
0.0
 20
0.0
 30
0.0
  9
$EXTMIN
 10
1.000000E+20
 20
1.000000E+20
 30
1.000000E+20
  9
$EXTMAX
 10
-1.000000E+20
 20
-1.000000E+20
 30
-1.000000E+20
  9
$LIMMIN
 10
0.0
 20
0.0
  9
$LIMMAX
 10
0.0
 20
0.0
  9
$ORTHOMODE
 70
     0
  9
$REGENMODE
 70
     1
  9
$FILLMODE
 70
     1
  9
$QTEXTMODE
 70
     0
  9
$MIRRTEXT
 70
     1
  9
$LTSCALE
 40
50.0
  9
$ATTMODE
 70
     1
  9
$TEXTSIZE
 40
0.2
  9
$TRACEWID
 40
0.05
  9
$TEXTSTYLE
  7
Standard
  9
$CLAYER
  8
0
  9
$CELTYPE
  6
Continuous
  9
$CECOLOR
 62
   256
  9
$CELTSCALE
 40
1.0
  9
$DISPSILH
 70
     0
  9
$DIMSCALE
 40
1.0
  9
$DIMASZ
 40
0.18
  9
$DIMEXO
 40
0.0625
  9
$DIMDLI
 40
0.38
  9
$DIMRND
 40
0.0
  9
$DIMDLE
 40
0.0
  9
$DIMEXE
 40
0.18
  9
$DIMTP
 40
0.0
  9
$DIMTM
 40
0.0
  9
$DIMTXT
 40
0.18
  9
$DIMCEN
 40
0.09
  9
$DIMTSZ
 40
0.0
  9
$DIMTOL
 70
     0
  9
$DIMLIM
 70
     0
  9
$DIMTIH
 70
     1
  9
$DIMTOH
 70
     1
  9
$DIMSE1
 70
     0
  9
$DIMSE2
 70
     0
  9
$DIMTAD
 70
     0
  9
$DIMZIN
 70
     0
  9
$DIMBLK
  1

  9
$DIMASO
 70
     1
  9
$DIMSHO
 70
     1
  9
$DIMPOST
  1

  9
$DIMAPOST
  1

  9
$DIMALT
 70
     0
  9
$DIMALTD
 70
     2
  9
$DIMALTF
 40
25.4
  9
$DIMLFAC
 40
1.0
  9
$DIMTOFL
 70
     0
  9
$DIMTVP
 40
0.0
  9
$DIMTIX
 70
     0
  9
$DIMSOXD
 70
     0
  9
$DIMSAH
 70
     0
  9
$DIMBLK1
  1

  9
$DIMBLK2
  1

  9
$DIMSTYLE
  2
Standard
  9
$DIMCLRD
 70
     0
  9
$DIMCLRE
 70
     0
  9
$DIMCLRT
 70
     0
  9
$DIMTFAC
 40
1.0
  9
$DIMGAP
 40
0.09
  9
$DIMJUST
 70
     0
  9
$DIMSD1
 70
     0
  9
$DIMSD2
 70
     0
  9
$DIMTOLJ
 70
     1
  9
$DIMTZIN
 70
     0
  9
$DIMALTZ
 70
     0
  9
$DIMALTTZ
 70
     0
  9
$DIMUPT
 70
     0
  9
$DIMDEC
 70
     4
  9
$DIMTDEC
 70
     4
  9
$DIMALTU
 70
     2
  9
$DIMALTTD
 70
     2
  9
$DIMTXSTY
  7
Standard
  9
$DIMAUNIT
 70
     0
  9
$DIMADEC
 70
     0
  9
$DIMALTRND
 40
0.0
  9
$DIMAZIN
 70
     0
  9
$DIMDSEP
 70
     0
  9
$DIMATFIT
 70
     3
  9
$DIMFRAC
 70
     0
  9
$DIMLDRBLK
  1

  9
$DIMLUNIT
 70
     2
  9
$DIMLWD
 70
     0
  9
$DIMLWE
 70
     0
  9
$DIMTMOVE
 70
     0
  9
$LUNITS
 70
     2
  9
$LUPREC
 70
     4
  9
$SKETCHINC
 40
0.1
  9
$FILLETRAD
 40
0.0
  9
$AUNITS
 70
     0
  9
$AUPREC
 70
     0
  9
$MENU
  1
acad
  9
$ELEVATION
 40
0.0
  9
$PELEVATION
 40
0.0
  9
$THICKNESS
 40
0.0
  9
$LIMCHECK
 70
     0
  9
$CHAMFERA
 40
0.0
  9
$CHAMFERB
 40
0.0
  9
$CHAMFERC
 40
0.0
  9
$CHAMFERD
 40
0.0
  9
$SKPOLY
 70
     0
  9
$TDCREATE
 40
0.000000000
  9
$TDUCREATE
 40
0.000000000
  9
$TDUPDATE
 40
0.000000000
  9
$TDUUPDATE
 40
0.000000000
  9
$TDINDWG
 40
0.0000000000
  9
$TDUSRTIMER
 40
0.0000000000
  9
$USRTIMER
 70
     1
  9
$ANGBASE
 50
0.0
  9
$ANGDIR
 70
     0
  9
$PDMODE
 70
     0
  9
$PDSIZE
 40
0.0
  9
$PLINEWID
 40
0.0
  9
$SPLFRAME
 70
     0
  9
$SPLINETYPE
 70
     6
  9
$SPLINESEGS
 70
   120
  9
$HANDSEED
  5
FF
  9
$SURFTAB1
 70
     6
  9
$SURFTAB2
 70
     6
  9
$SURFTYPE
 70
     6
  9
$SURFU
 70
     6
  9
$SURFV
 70
     6
  9
$UCSBASE
  2

  9
$UCSNAME
  2

  9
$UCSORG
 10
0.0
 20
0.0
 30
0.0
  9
$UCSXDIR
 10
1.0
 20
0.0
 30
0.0
  9
$UCSYDIR
 10
0.0
 20
1.0
 30
0.0
  9
$UCSORTHOREF
  2

  9
$UCSORTHOVIEW
 70
     0
  9
$UCSORGTOP
 10
0.0
 20
0.0
 30
0.0
  9
$UCSORGBOTTOM
 10
0.0
 20
0.0
 30
0.0
  9
$UCSORGLEFT
 10
0.0
 20
0.0
 30
0.0
  9
$UCSORGRIGHT
 10
0.0
 20
0.0
 30
0.0
  9
$UCSORGFRONT
 10
0.0
 20
0.0
 30
0.0
  9
$UCSORGBACK
 10
0.0
 20
0.0
 30
0.0
  9
$PUCSBASE
  2

  9
$PUCSNAME
  2

  9
$PUCSORG
 10
0.0
 20
0.0
 30
0.0
  9
$PUCSXDIR
 10
1.0
 20
0.0
 30
0.0
  9
$PUCSYDIR
 10
0.0
 20
1.0
 30
0.0
  9
$PUCSORTHOREF
  2

  9
$PUCSORTHOVIEW
 70
     0
  9
$PUCSORGTOP
 10
0.0
 20
0.0
 30
0.0
  9
$PUCSORGBOTTOM
 10
0.0
 20
0.0
 30
0.0
  9
$PUCSORGLEFT
 10
0.0
 20
0.0
 30
0.0
  9
$PUCSORGRIGHT
 10
0.0
 20
0.0
 30
0.0
  9
$PUCSORGFRONT
 10
0.0
 20
0.0
 30
0.0
  9
$PUCSORGBACK
 10
0.0
 20
0.0
 30
0.0
  9
$USERI1
 70
 12345
  9
$USERI2
 70
     0
  9
$USERI3
 70
     0
  9
$USERI4
 70
     0
  9
$USERI5
 70
     0
  9
$USERR1
 40
0.0
  9
$USERR2
 40
0.0
  9
$USERR3
 40
0.0
  9
$USERR4
 40
0.0
  9
$USERR5
 40
0.0
  9
$WORLDVIEW
 70
     1
  9
$SHADEDGE
 70
     3
  9
$SHADEDIF
 70
    70
  9
$TILEMODE
 70
     1
  9
$MAXACTVP
 70
    16
  9
$PINSBASE
 10
0.0
 20
0.0
 30
0.0
  9
$PLIMCHECK
 70
     0
  9
$PEXTMIN
 10
1.000000E+20
 20
1.000000E+20
 30
1.000000E+20
  9
$PEXTMAX
 10
-1.000000E+20
 20
-1.000000E+20
 30
-1.000000E+20
  9
$PLIMMIN
 10
0.0
 20
0.0
  9
$PLIMMAX
 10
12.0
 20
9.0
  9
$UNITMODE
 70
     0
  9
$VISRETAIN
 70
     0
  9
$PLINEGEN
 70
     1
  9
$PSLTSCALE
 70
     0
  9
$TREEDEPTH
 70
  3020
  9
$CMLSTYLE
  2
Standard
  9
$CMLJUST
 70
     0
  9
$CMLSCALE
 40
1.0
  9
$PROXYGRAPHICS
 70
     0
  9
$MEASUREMENT
 70
     0
  9
$CELWEIGHT
370
     0
  9
$ENDCAPS
280
     0
  9
$JOINSTYLE
280
     0
  9
$LWDISPLAY
290
     0
  9
$INSUNITS
 70
     0
  9
$HYPERLINKBASE
  1

  9
$STYLESHEET
  1

  9
$XEDIT
290
     1
  9
$CEPSNTYPE
380
     0
  9
$PSTYLEMODE
290
     1
  9
$FINGERPRINTGUID
  2

  9
$VERSIONGUID
  2

  9
$EXTNAMES
290
     1
  9
$PSVPSCALE
 40
0.0
  0
ENDSEC
  0
SECTION
  2
CLASSES
  0
CLASS
  1
LWPOLYLINE
  2
AcDbPolyline
  3
AutoCAD 2000
 90
        0
280
     0
281
     1
  0
CLASS
  1
IMAGE
  2
AcDbRasterImage
  3
ISM
 90
      127
280
     0
281
     1
  0
CLASS
  1
OLE2FRAME
  2
AcDbOle2Frame
  3
AutoCAD 2000
 90
        0
280
     0
281
     1
  0
CLASS
  1
HATCH
  2
AcDbHatch
  3
AutoCAD 2000
 90
        0
280
     0
281
     1
  0
CLASS
  1
DICTIONARYVAR
  2
AcDbDictionaryVar
  3
AutoCAD 2000
 90
        0
280
     0
281
     0
  0
CLASS
  1
RASTERVARIABLES
  2
AcDbRasterVariables
  3
ISM
 90
        0
280
     0
281
     0
  0
CLASS
  1
IMAGEDEF
  2
AcDbRasterImageDef
  3
ISM
 90
        0
280
     0
281
     0
  0
CLASS
  1
IMAGEDEF_REACTOR
  2
AcDbRasterImageDefReactor
  3
ISM
 90
        1
280
     0
281
     0
  0
CLASS
  1
IDBUFFER
  2
AcDbIdBuffer
  3
AutoCAD 2000
 90
        0
280
     0
281
     0
  0
CLASS
  1
SPATIAL_FILTER
  2
AcDbSpatialFilter
  3
AutoCAD 2000
 90
        0
280
     0
281
     0
  0
CLASS
  1
XRECORD
  2
AcDbXrecord
  3
AutoCAD 2000
 90
        0
280
     0
281
     0
  0
CLASS
  1
SORTENTSTABLE
  2
AcDbSortentsTable
  3
AutoCAD 2000
 90
        0
280
     0
281
     0
  0
CLASS
  1
LAYER_INDEX
  2
AcDbLayerIndex
  3
AutoCAD 2000
 90
        0
280
     0
281
     0
  0
CLASS
  1
SPATIAL_INDEX
  2
AcDbSpatialIndex
  3
AutoCAD 2000
 90
        0
280
     0
281
     0
  0
CLASS
  1
OBJECT_PTR
  2
CAseDLPNTableRecord
  3
"ASE-LPNTableRecord"
 90
        1
280
     0
281
     0
  0
CLASS
  1
LAYOUT
  2
AcDbLayout
  3
AutoCAD 2000
 90
        0
280
     0
281
     0
  0
CLASS
  1
PLOTSETTINGS
  2
AcDbPlotSettings
  3
AutoCAD 2000
 90
        0
280
     0
281
     0
  0
CLASS
  1
ACDBDICTIONARYWDFLT
  2
AcDbDictionaryWithDefault
  3
AutoCAD 2000
 90
        0
280
     0
281
     0
  0
CLASS
  1
ACDBPLACEHOLDER
  2
AcDbPlaceHolder
  3
AutoCAD 2000
 90
        0
280
     0
281
     0
  0
CLASS
  1
VBA_PROJECT
  2
AcDbVbaProject
  3
acadvba
 90
        0
280
     0
281
     0
  0
CLASS
  1
WIPEOUT
  2
AcDbWipeout
  3
WipeOut|AutoCAD Express Tool|expresstools@autodesk.com
 90
      127
280
     0
281
     1
  0
CLASS
  1
WIPEOUTVARIABLES
  2
AcDbWipeoutVariables
  3
WipeOut|AutoCAD Express Tool|expresstools@autodesk.com
 90
        0
280
     0
281
     0
  0
CLASS
  1
RTEXT
  2
RText
  3
RText|AutoCAD Express Tool|expresstools@autodesk.com
 90
        0
280
     0
281
     1
  0
CLASS
  1
ARCALIGNEDTEXT
  2
AcDbArcAlignedText
  3
ATEXT|AutoCAD Express Tool|expresstools@autodesk.com
 90
        0
280
     0
281
     1
  0
ENDSEC
  0
SECTION
  2
TABLES
  0
TABLE
  2
VPORT
  5
7
100
AcDbSymbolTable
 70
     1
  0
VPORT
  5
15
100
AcDbSymbolTableRecord
100
AcDbViewportTableRecord
  2
*ACTIVE
 70
     0
 10
0.0
 20
0.0
 11
1.0
 21
1.0
 12
152.0
 22
-232.0
 13
0.0
 23
0.0
 14
1.0
 24
1.0
 15
0.0
 25
0.0
 16
0.0
 26
0.0
 36
1.0
 17
0.0
 27
0.0
 37
0.0
 40
3236.0
 41
0.688564
 42
50.0
 43
0.0
 44
0.0
 50
0.0
 51
0.0
 71
     0
 72
   100
 73
     1
 74
     1
 75
     0
 76
     0
 77
     0
 78
     0
281
     0
 65
     0
110
0.0
120
0.0
130
0.0
111
1.0
121
0.0
131
0.0
112
0.0
122
1.0
132
0.0
345
0
346
0
 79
     0
146
0.0
  0
ENDTAB
  0
TABLE
  2
LTYPE
  5
4
100
AcDbSymbolTable
 70
     7
  0
LTYPE
  5
11
100
AcDbSymbolTableRecord
100
AcDbLinetypeTableRecord
  2
ByBlock
 70
    64
  3

 72
    65
 73
     0
 40
0.0
  0
LTYPE
  5
12
100
AcDbSymbolTableRecord
100
AcDbLinetypeTableRecord
  2
ByLayer
 70
    64
  3

 72
    65
 73
     0
 40
0.0
  0
LTYPE
  5
13
100
AcDbSymbolTableRecord
100
AcDbLinetypeTableRecord
  2
Continuous
 70
    64
  3
Solid line
 72
    65
 73
     0
 40
0.0
  0
LTYPE
  5
24
100
AcDbSymbolTableRecord
100
AcDbLinetypeTableRecord
  2
DASHED
 70
    64
  3
Dashed __ __ __
 72
    65
 73
     2
 40
0.75
 49
0.5
 74
     0
 49
-0.25
 74
     0
  0
LTYPE
  5
25
100
AcDbSymbolTableRecord
100
AcDbLinetypeTableRecord
  2
DOT
 70
    64
  3
Dot . . . .
 72
    65
 73
     2
 40
0.25
 49
0.0
 74
     0
 49
-0.25
 74
     0
  0
LTYPE
  5
26
100
AcDbSymbolTableRecord
100
AcDbLinetypeTableRecord
  2
DASHDOT
 70
    64
  3
Dash dot __ . __ .
 72
    65
 73
     4
 40
1.0
 49
0.5
 74
     0
 49
-0.25
 74
     0
 49
0.0
 74
     0
 49
-0.25
 74
     0
  0
LTYPE
  5
27
100
AcDbSymbolTableRecord
100
AcDbLinetypeTableRecord
  2
DIVIDE
 70
    64
  3
Divide __ . . __ . .
 72
    65
 73
     6
 40
1.25
 49
0.5
 74
     0
 49
-0.25
 74
     0
 49
0.0
 74
     0
 49
-0.25
 74
     0
 49
0.0
 74
     0
 49
-0.25
 74
     0
  0
ENDTAB
  0
TABLE
  2
LAYER
  5
2
100
AcDbSymbolTable
 70
     3
  0
LAYER
  5
14
100
AcDbSymbolTableRecord
100
AcDbLayerTableRecord
  2
0
 70
     0
 62
     7
  6
Continuous
290
     1
370
    -3
390
1D
  0
LAYER
  5
29
100
AcDbSymbolTableRecord
100
AcDbLayerTableRecord
  2
LAYER01
 70
     0
 62
     7
  6
Continuous
290
     1
370
    -3
390
1D
  0
LAYER
  5
2B
100
AcDbSymbolTableRecord
100
AcDbLayerTableRecord
  2
LAYER22
 70
     0
 62
     7
  6
Continuous
290
     1
370
    -3
390
1D
  0
ENDTAB
  0
TABLE
  2
STYLE
  5
3
100
AcDbSymbolTable
 70
     1
  0
STYLE
  5
17
100
AcDbSymbolTableRecord
100
AcDbTextStyleTableRecord
  2
Standard
 70
     0
 40
0.0
 41
1.0
 50
0.0
 71
     0
 42
0.0
  3
txt
  4

  0
ENDTAB
  0
TABLE
  2
VIEW
  5
5
100
AcDbSymbolTable
 70
     0
  0
ENDTAB
  0
TABLE
  2
UCS
  5
6
100
AcDbSymbolTable
 70
     0
  0
ENDTAB
  0
TABLE
  2
APPID
  5
8
100
AcDbSymbolTable
 70
     1
  0
APPID
  5
16
100
AcDbSymbolTableRecord
100
AcDbRegAppTableRecord
  2
ACAD
 70
     0
  0
ENDTAB
  0
TABLE
  2
DIMSTYLE
  5
9
100
AcDbSymbolTable
 70
     1
100
AcDbDimStyleTable
 71
     0
  0
DIMSTYLE
105
18
100
AcDbSymbolTableRecord
100
AcDbDimStyleTableRecord
  2
Standard
 70
     0
  3

  4

 40
1.0
 41
0.18
 42
0.0625
 43
0.38
 44
0.18
 45
0.0
 46
0.0
 47
0.0
 48
0.0
 71
     0
 72
     0
 73
     1
 74
     1
 75
     0
 76
     0
 77
     0
 78
     0
 79
     0
140
0.18
141
0.09
142
0.0
143
25.4
144
1.0
145
0.0
146
1.0
147
0.09
148
0.0
170
     0
171
     2
172
     0
173
     0
174
     0
175
     0
176
     0
177
     0
178
     0
179
     0
271
     4
272
     4
273
     2
274
     2
275
     0
276
     0
277
     2
278
    46
279
     0
280
     0
281
     0
282
     0
283
     1
284
     0
285
     0
286
     0
288
     0
289
     3
340
17
341
0
342
0
343
0
344
0
371
    -2
372
    -2
  0
ENDTAB
  0
TABLE
  2
BLOCK_RECORD
  5
1
100
AcDbSymbolTable
 70
     0
  0
BLOCK_RECORD
  5
A
100
AcDbSymbolTableRecord
100
AcDbBlockTableRecord
  2
*MODEL_SPACE
340
20
  0
BLOCK_RECORD
  5
B
100
AcDbSymbolTableRecord
100
AcDbBlockTableRecord
  2
*PAPER_SPACE
340
21
  0
ENDTAB
  0
ENDSEC
  0
SECTION
  2
BLOCKS
  0
BLOCK
  5
D
100
AcDbEntity
  8
0
390
0
100
AcDbBlockBegin
  2
*MODEL_SPACE
 70
     0
 10
0.0
 20
0.0
 30
0.0
  3
*MODEL_SPACE
  1

  0
ENDBLK
  5
E
100
AcDbEntity
  8
0
390
0
100
AcDbBlockEnd
  0
BLOCK
  5
F
100
AcDbEntity
 67
     1
  8
0
390
0
100
AcDbBlockBegin
  2
*PAPER_SPACE
 70
     0
 10
0.0
 20
0.0
 30
0.0
  3
*PAPER_SPACE
  1

  0
ENDBLK
  5
10
100
AcDbEntity
 67
     1
  8
0
390
0
100
AcDbBlockEnd
  0
ENDSEC
  0
SECTION
  2
ENTITIES
  0
MTEXT
  5
28
100
AcDbEntity
  8
LAYER01
390
0
 62
     2
100
AcDbMText
 10
-1996.0
 20
1230.0
 30
0.0
 40
11.25
 41
0.0
 71
     7
 72
     1
  1
FLEXIO 85HV
 11
1.0
 21
0.0
 31
0.0
 73
     1
 44
1.333333
  0
LWPOLYLINE
  5
2A
100
AcDbEntity
  8
LAYER22
370
    13
390
0
  6
Continuous
 62
     5
100
AcDbPolyline
 90
        2
 70
     0
 10
-323.0
 20
-1636.746094
 10
-273.0
 20
-1636.746094
  0
LWPOLYLINE
  5
2C
100
AcDbEntity
  8
LAYER22
370
    18
390
0
  6
Continuous
 62
     1
100
AcDbPolyline
 90
        2
 70
     0
 10
-323.000031
 20
-1634.246094
 10
-323.000031
 20
-1644.246094
  0
LWPOLYLINE
  5
2D
100
AcDbEntity
  8
LAYER22
370
    18
390
0
  6
Continuous
 62
     1
100
AcDbPolyline
 90
        2
 70
     0
 10
-273.000031
 20
-1634.246094
 10
-273.000031
 20
-1644.246094
  0
MTEXT
  5
2E
100
AcDbEntity
  8
LAYER22
390
0
 62
     2
100
AcDbMText
 10
-298.0
 20
-1632.579468
 30
0.0
 40
11.25
 41
0.0
 71
     8
 72
     1
  1
50
 11
1.0
 21
0.0
 31
0.0
 73
     1
 44
1.333333
  0
LWPOLYLINE
  5
2F
100
AcDbEntity
  8
LAYER22
370
    13
390
0
  6
Continuous
 62
     5
100
AcDbPolyline
 90
        2
 70
     0
 10
-273.0
 20
-1636.746094
 10
477.0
 20
-1636.746094
  0
LWPOLYLINE
  5
30
100
AcDbEntity
  8
LAYER22
370
    18
390
0
  6
Continuous
 62
     1
100
AcDbPolyline
 90
        2
 70
     0
 10
-273.000031
 20
-1634.246094
 10
-273.000031
 20
-1644.246094
  0
LWPOLYLINE
  5
31
100
AcDbEntity
  8
LAYER22
370
    18
390
0
  6
Continuous
 62
     1
100
AcDbPolyline
 90
        2
 70
     0
 10
476.999969
 20
-1634.246094
 10
476.999969
 20
-1644.246094
  0
MTEXT
  5
32
100
AcDbEntity
  8
LAYER22
390
0
 62
     2
100
AcDbMText
 10
102.0
 20
-1632.579468
 30
0.0
 40
11.25
 41
0.0
 71
     8
 72
     1
  1
750
 11
1.0
 21
0.0
 31
0.0
 73
     1
 44
1.333333
  0
LWPOLYLINE
  5
33
100
AcDbEntity
  8
LAYER22
370
    18
390
0
  6
Continuous
 62
     1
100
AcDbPolyline
 90
        2
 70
     0
 10
-2052.0
 20
-1529.0
 10
2390.0
 20
-1529.0
  0
LWPOLYLINE
  5
34
100
AcDbEntity
  8
LAYER22
370
    18
390
0
  6
DASHED
 62
     1
100
AcDbPolyline
 90
        2
 70
     0
 10
-2052.0
 20
1171.0
 10
2408.0
 20
1171.0
  0
MTEXT
  5
35
100
AcDbEntity
  8
LAYER01
390
0
 62
     2
100
AcDbMText
 10
-2099.0
 20
1311.0
 30
0.0
 40
15.75
 41
0.0
 71
     7
 72
     1
  1
FLEXIO 85 excentrisch
 11
1.0
 21
0.0
 31
0.0
 73
     1
 44
1.333333
  0
LWPOLYLINE
  5
36
100
AcDbEntity
  8
LAYER22
370
    13
390
0
  6
Continuous
 62
     5
100
AcDbPolyline
 90
        2
 70
     0
 10
-1947.0
 20
-1529.0
 10
-1947.0
 20
1171.0
  0
LWPOLYLINE
  5
37
100
AcDbEntity
  8
LAYER22
370
    18
390
0
  6
Continuous
 62
     1
100
AcDbPolyline
 90
        2
 70
     0
 10
-1949.5
 20
-1529.0
 10
-1939.5
 20
-1529.0
  0
LWPOLYLINE
  5
38
100
AcDbEntity
  8
LAYER22
370
    18
390
0
  6
Continuous
 62
     1
100
AcDbPolyline
 90
        2
 70
     0
 10
-1949.5
 20
1171.0
 10
-1939.5
 20
1171.0
  0
MTEXT
  5
39
100
AcDbEntity
  8
LAYER22
390
0
 62
     2
100
AcDbMText
 10
-1951.166626
 20
-179.0
 30
0.0
 40
11.25
 41
0.0
 71
     8
 72
     1
  1
2700
 11
0.0
 21
1.0
 31
0.0
 73
     1
 44
1.333333
  0
LWPOLYLINE
  5
3A
100
AcDbEntity
  8
LAYER22
370
    18
390
0
  6
Continuous
 62
     1
100
AcDbPolyline
 90
        4
 70
     1
 10
477.0
 20
-1509.0
 10
477.0
 20
1075.0
 10
1227.0
 20
1075.0
 10
1227.0
 20
-1509.0
  0
LWPOLYLINE
  5
3B
100
AcDbEntity
  8
LAYER22
370
    18
390
0
  6
Continuous
 62
     1
100
AcDbPolyline
 90
        4
 70
     1
 10
-273.0
 20
-1509.0
 10
-273.0
 20
1075.0
 10
477.0
 20
1075.0
 10
477.0
 20
-1509.0
  0
LWPOLYLINE
  5
3C
100
AcDbEntity
  8
LAYER22
370
    18
390
0
  6
Continuous
 62
     1
100
AcDbPolyline
 90
        4
 70
     1
 10
-323.0
 20
-1509.0
 10
-323.0
 20
1075.0
 10
-273.0
 20
1075.0
 10
-273.0
 20
-1509.0
  0
LWPOLYLINE
  5
3D
100
AcDbEntity
  8
LAYER22
370
    18
390
0
  6
Continuous
 62
     1
100
AcDbPolyline
 90
        4
 70
     1
 10
1227.0
 20
-1509.0
 10
1227.0
 20
1075.0
 10
2127.0
 20
1075.0
 10
2127.0
 20
-1509.0
  0
LWPOLYLINE
  5
3E
100
AcDbEntity
  8
LAYER22
370
    18
390
0
  6
Continuous
 62
     1
100
AcDbPolyline
 90
        4
 70
     1
 10
2127.0
 20
-1509.0
 10
2127.0
 20
1075.0
 10
2177.0
 20
1075.0
 10
2177.0
 20
-1509.0
  0
LWPOLYLINE
  5
3F
100
AcDbEntity
  8
LAYER22
370
    18
390
0
  6
Continuous
 62
     1
100
AcDbPolyline
 90
        4
 70
     1
 10
-323.0
 20
1088.0
 10
-323.0
 20
1171.0
 10
2177.0
 20
1171.0
 10
2177.0
 20
1088.0
  0
MTEXT
  5
40
100
AcDbEntity
  8
LAYER01
390
0
 62
     1
100
AcDbMText
 10
-1439.0
 20
1194.0
 30
0.0
 40
8.1
 41
0.0
 71
     7
 72
     1
  1
FLEXIO 85S
 11
1.0
 21
0.0
 31
0.0
 73
     1
 44
1.333333
  0
LWPOLYLINE
  5
41
100
AcDbEntity
  8
LAYER22
370
    25
390
0
  6
Continuous
 62
     2
100
AcDbPolyline
 90
       30
 70
     0
 10
458.5
 20
-1714.0
 10
458.5
 20
-1686.5
 10
472.5
 20
-1686.5
 42
-0.414214
 10
473.5
 20
-1687.5
 10
473.5
 20
-1690.75
 42
0.647625
 10
474.333374
 20
-1691.123169
 42
0.213431
 10
474.999969
 20
-1689.632568
 10
474.999878
 20
-1683.390869
 42
0.744972
 10
474.098907
 20
-1683.121582
 10
473.057129
 20
-1684.854492
 10
472.5
 20
-1684.700195
 10
472.499878
 20
-1677.100098
 10
473.057129
 20
-1676.945557
 10
474.078491
 20
-1678.645508
 42
0.776162
 10
475.000397
 20
-1678.40918
 10
475.0
 20
-1674.800049
 42
0.414214
 10
471.0
 20
-1670.800049
 10
467.615967
 20
-1670.800049
 42
0.217187
 10
466.110565
 20
-1671.48645
 42
0.629276
 10
466.499023
 20
-1672.300049
 10
471.0
 20
-1672.300049
 42
-0.378639
 10
473.48111
 20
-1674.493408
 42
-0.358301
 10
472.5
 20
-1675.300049
 42
0.414214
 10
471.0
 20
-1676.800049
 10
471.0
 20
-1685.0
 10
452.0
 20
-1685.0
 10
452.0
 20
-1686.5
 10
455.5
 20
-1686.5
 42
-0.414214
 10
456.5
 20
-1687.5
 10
456.5
 20
-1714.0
  0
LWPOLYLINE
  5
42
100
AcDbEntity
  8
LAYER22
370
    25
390
0
  6
Continuous
 62
     2
100
AcDbPolyline
 90
       30
 70
     0
 10
458.5
 20
-1714.0
 10
458.5
 20
-1741.5
 10
472.5
 20
-1741.5
 42
0.414214
 10
473.5
 20
-1740.5
 10
473.5
 20
-1737.25
 42
-0.647625
 10
474.333374
 20
-1736.876831
 42
-0.213431
 10
474.999969
 20
-1738.367432
 10
474.999878
 20
-1744.609131
 42
-0.744972
 10
474.098907
 20
-1744.878418
 10
473.057129
 20
-1743.145508
 10
472.5
 20
-1743.299805
 10
472.499878
 20
-1750.899902
 10
473.057129
 20
-1751.054443
 10
474.078491
 20
-1749.354492
 42
-0.776162
 10
475.000397
 20
-1749.59082
 10
475.0
 20
-1753.199951
 42
-0.414214
 10
471.0
 20
-1757.199951
 10
467.615967
 20
-1757.199951
 42
-0.217187
 10
466.110565
 20
-1756.51355
 42
-0.629276
 10
466.499023
 20
-1755.699951
 10
471.0
 20
-1755.699951
 42
0.378639
 10
473.48111
 20
-1753.506592
 42
0.358301
 10
472.5
 20
-1752.699951
 42
-0.414214
 10
471.0
 20
-1751.199951
 10
471.0
 20
-1743.0
 10
452.0
 20
-1743.0
 10
452.0
 20
-1741.5
 10
455.5
 20
-1741.5
 42
0.414214
 10
456.5
 20
-1740.5
 10
456.5
 20
-1714.0
  0
LWPOLYLINE
  5
43
100
AcDbEntity
  8
LAYER22
370
    18
390
0
  6
Continuous
 62
     1
100
AcDbPolyline
 90
        6
 70
     1
 10
458.5
 20
-1741.5
 10
472.5
 20
-1741.5
 42
0.414214
 10
473.5
 20
-1740.5
 10
473.5
 20
-1687.5
 42
0.414214
 10
472.5
 20
-1686.5
 10
458.5
 20
-1686.5
  0
LWPOLYLINE
  5
44
100
AcDbEntity
  8
LAYER22
370
    25
390
0
  6
Continuous
 62
     2
100
AcDbPolyline
 90
        4
 70
     1
 10
-267.0
 20
-1685.0
 10
-267.0
 20
-1672.5
 10
471.001953
 20
-1672.5
 10
471.001953
 20
-1685.0
  0
LWPOLYLINE
  5
45
100
AcDbEntity
  8
LAYER22
370
    25
390
0
  6
Continuous
 62
     2
100
AcDbPolyline
 90
        4
 70
     1
 10
-267.0
 20
-1743.0
 10
-267.0
 20
-1755.5
 10
471.001953
 20
-1755.5
 10
471.001953
 20
-1743.0
  0
LWPOLYLINE
  5
46
100
AcDbEntity
  8
LAYER22
370
    25
390
0
  6
Continuous
 62
     2
100
AcDbPolyline
 90
       30
 70
     0
 10
-254.5
 20
-1714.0
 10
-254.5
 20
-1686.5
 10
-268.5
 20
-1686.5
 42
0.414214
 10
-269.5
 20
-1687.5
 10
-269.5
 20
-1690.75
 42
-0.647625
 10
-270.333374
 20
-1691.123169
 42
-0.213431
 10
-270.999969
 20
-1689.632568
 10
-270.999878
 20
-1683.390869
 42
-0.744972
 10
-270.098907
 20
-1683.121582
 10
-269.057129
 20
-1684.854492
 10
-268.5
 20
-1684.700195
 10
-268.499878
 20
-1677.100098
 10
-269.057129
 20
-1676.945557
 10
-270.078491
 20
-1678.645508
 42
-0.776162
 10
-271.000397
 20
-1678.40918
 10
-271.0
 20
-1674.800049
 42
-0.414214
 10
-267.0
 20
-1670.800049
 10
-263.615967
 20
-1670.800049
 42
-0.217187
 10
-262.110565
 20
-1671.48645
 42
-0.629276
 10
-262.499023
 20
-1672.300049
 10
-267.0
 20
-1672.300049
 42
0.378639
 10
-269.48111
 20
-1674.493408
 42
0.358301
 10
-268.5
 20
-1675.300049
 42
-0.414214
 10
-267.0
 20
-1676.800049
 10
-267.0
 20
-1685.0
 10
-248.0
 20
-1685.0
 10
-248.0
 20
-1686.5
 10
-251.5
 20
-1686.5
 42
0.414214
 10
-252.5
 20
-1687.5
 10
-252.5
 20
-1714.0
  0
LWPOLYLINE
  5
47
100
AcDbEntity
  8
LAYER22
370
    25
390
0
  6
Continuous
 62
     2
100
AcDbPolyline
 90
       30
 70
     0
 10
-254.5
 20
-1714.0
 10
-254.5
 20
-1741.5
 10
-268.5
 20
-1741.5
 42
-0.414214
 10
-269.5
 20
-1740.5
 10
-269.5
 20
-1737.25
 42
0.647625
 10
-270.333374
 20
-1736.876831
 42
0.213431
 10
-270.999969
 20
-1738.367432
 10
-270.999878
 20
-1744.609131
 42
0.744972
 10
-270.098907
 20
-1744.878418
 10
-269.057129
 20
-1743.145508
 10
-268.5
 20
-1743.299805
 10
-268.499878
 20
-1750.899902
 10
-269.057129
 20
-1751.054443
 10
-270.078491
 20
-1749.354492
 42
0.776162
 10
-271.000397
 20
-1749.59082
 10
-271.0
 20
-1753.199951
 42
0.414214
 10
-267.0
 20
-1757.199951
 10
-263.615967
 20
-1757.199951
 42
0.217187
 10
-262.110565
 20
-1756.51355
 42
0.629276
 10
-262.499023
 20
-1755.699951
 10
-267.0
 20
-1755.699951
 42
-0.378639
 10
-269.48111
 20
-1753.506592
 42
-0.358301
 10
-268.5
 20
-1752.699951
 42
0.414214
 10
-267.0
 20
-1751.199951
 10
-267.0
 20
-1743.0
 10
-248.0
 20
-1743.0
 10
-248.0
 20
-1741.5
 10
-251.5
 20
-1741.5
 42
-0.414214
 10
-252.5
 20
-1740.5
 10
-252.5
 20
-1714.0
  0
LWPOLYLINE
  5
48
100
AcDbEntity
  8
LAYER22
370
    18
390
0
  6
Continuous
 62
     1
100
AcDbPolyline
 90
        6
 70
     1
 10
-254.5
 20
-1741.5
 10
-268.5
 20
-1741.5
 42
-0.414214
 10
-269.5
 20
-1740.5
 10
-269.5
 20
-1687.5
 42
-0.414214
 10
-268.5
 20
-1686.5
 10
-254.5
 20
-1686.5
  0
LWPOLYLINE
  5
49
100
AcDbEntity
  8
LAYER22
370
    25
390
0
  6
Continuous
 62
     2
100
AcDbPolyline
 90
       12
 70
     0
 10
-268.5
 20
-1747.099609
 10
-268.5
 20
-1743.299561
 10
-269.056641
 20
-1743.14502
 10
-270.078125
 20
-1744.844727
 42
-0.792023
 10
-270.997711
 20
-1744.589478
 10
-271.0
 20
-1742.349609
 42
1.0
 10
-273.0
 20
-1742.349609
 10
-273.0
 20
-1747.099609
 10
-272.5
 20
-1747.099609
 10
-272.5
 20
-1742.349609
 42
-1.0
 10
-271.5
 20
-1742.349609
 10
-271.5
 20
-1747.099609
  0
LWPOLYLINE
  5
4A
100
AcDbEntity
  8
LAYER22
370
    25
390
0
  6
Continuous
 62
     2
100
AcDbPolyline
 90
       12
 70
     0
 10
-268.5
 20
-1747.099609
 10
-268.5
 20
-1750.899414
 10
-269.056641
 20
-1751.053955
 10
-270.078125
 20
-1749.354004
 42
0.792023
 10
-270.997833
 20
-1749.609497
 10
-271.0
 20
-1751.849609
 42
-1.0
 10
-273.0
 20
-1751.849609
 10
-273.0
 20
-1747.099609
 10
-272.5
 20
-1747.099609
 10
-272.5
 20
-1751.849609
 42
1.0
 10
-271.5
 20
-1751.849609
 10
-271.5
 20
-1747.099609
  0
LWPOLYLINE
  5
4B
100
AcDbEntity
  8
LAYER22
370
    25
390
0
  6
Continuous
 62
     2
100
AcDbPolyline
 90
       12
 70
     0
 10
-268.5
 20
-1680.900391
 10
-268.5
 20
-1677.100342
 10
-269.056641
 20
-1676.945801
 10
-270.078125
 20
-1678.645508
 42
-0.792023
 10
-270.997711
 20
-1678.390259
 10
-271.0
 20
-1676.150391
 42
1.0
 10
-273.0
 20
-1676.150391
 10
-273.0
 20
-1680.900391
 10
-272.5
 20
-1680.900391
 10
-272.5
 20
-1676.150391
 42
-1.0
 10
-271.5
 20
-1676.150391
 10
-271.5
 20
-1680.900391
  0
LWPOLYLINE
  5
4C
100
AcDbEntity
  8
LAYER22
370
    25
390
0
  6
Continuous
 62
     2
100
AcDbPolyline
 90
       12
 70
     0
 10
-268.5
 20
-1680.900391
 10
-268.5
 20
-1684.700195
 10
-269.056641
 20
-1684.854736
 10
-270.078125
 20
-1683.154785
 42
0.792023
 10
-270.997833
 20
-1683.410278
 10
-271.0
 20
-1685.650391
 42
-1.0
 10
-273.0
 20
-1685.650391
 10
-273.0
 20
-1680.900391
 10
-272.5
 20
-1680.900391
 10
-272.5
 20
-1685.650391
 42
1.0
 10
-271.5
 20
-1685.650391
 10
-271.5
 20
-1680.900391
  0
LWPOLYLINE
  5
4D
100
AcDbEntity
  8
LAYER22
370
    25
390
0
  6
Continuous
 62
     2
100
AcDbPolyline
 90
       12
 70
     0
 10
472.5
 20
-1747.099609
 10
472.5
 20
-1743.299561
 10
473.056641
 20
-1743.14502
 10
474.078125
 20
-1744.844727
 42
0.792023
 10
474.997711
 20
-1744.589478
 10
475.0
 20
-1742.349609
 42
-1.0
 10
477.0
 20
-1742.349609
 10
477.0
 20
-1747.099609
 10
476.5
 20
-1747.099609
 10
476.5
 20
-1742.349609
 42
1.0
 10
475.5
 20
-1742.349609
 10
475.5
 20
-1747.099609
  0
LWPOLYLINE
  5
4E
100
AcDbEntity
  8
LAYER22
370
    25
390
0
  6
Continuous
 62
     2
100
AcDbPolyline
 90
       12
 70
     0
 10
472.5
 20
-1747.099609
 10
472.5
 20
-1750.899414
 10
473.056641
 20
-1751.053955
 10
474.078125
 20
-1749.354004
 42
-0.792023
 10
474.997833
 20
-1749.609497
 10
475.0
 20
-1751.849609
 42
1.0
 10
477.0
 20
-1751.849609
 10
477.0
 20
-1747.099609
 10
476.5
 20
-1747.099609
 10
476.5
 20
-1751.849609
 42
-1.0
 10
475.5
 20
-1751.849609
 10
475.5
 20
-1747.099609
  0
LWPOLYLINE
  5
4F
100
AcDbEntity
  8
LAYER22
370
    25
390
0
  6
Continuous
 62
     2
100
AcDbPolyline
 90
       12
 70
     0
 10
472.5
 20
-1680.900391
 10
472.5
 20
-1677.100342
 10
473.056641
 20
-1676.945801
 10
474.078125
 20
-1678.645508
 42
0.792023
 10
474.997711
 20
-1678.390259
 10
475.0
 20
-1676.150391
 42
-1.0
 10
477.0
 20
-1676.150391
 10
477.0
 20
-1680.900391
 10
476.5
 20
-1680.900391
 10
476.5
 20
-1676.150391
 42
1.0
 10
475.5
 20
-1676.150391
 10
475.5
 20
-1680.900391
  0
LWPOLYLINE
  5
50
100
AcDbEntity
  8
LAYER22
370
    25
390
0
  6
Continuous
 62
     2
100
AcDbPolyline
 90
       12
 70
     0
 10
472.5
 20
-1680.900391
 10
472.5
 20
-1684.700195
 10
473.056641
 20
-1684.854736
 10
474.078125
 20
-1683.154785
 42
-0.792023
 10
474.997833
 20
-1683.410278
 10
475.0
 20
-1685.650391
 42
1.0
 10
477.0
 20
-1685.650391
 10
477.0
 20
-1680.900391
 10
476.5
 20
-1680.900391
 10
476.5
 20
-1685.650391
 42
-1.0
 10
475.5
 20
-1685.650391
 10
475.5
 20
-1680.900391
  0
LWPOLYLINE
  5
51
100
AcDbEntity
  8
LAYER22
370
    25
390
0
  6
Continuous
 62
     2
100
AcDbPolyline
 90
       30
 70
     0
 10
1208.5
 20
-1714.0
 10
1208.5
 20
-1686.5
 10
1222.5
 20
-1686.5
 42
-0.414214
 10
1223.5
 20
-1687.5
 10
1223.5
 20
-1690.75
 42
0.647625
 10
1224.333374
 20
-1691.123169
 42
0.213431
 10
1225.0
 20
-1689.632568
 10
1224.999878
 20
-1683.390869
 42
0.744972
 10
1224.098877
 20
-1683.121582
 10
1223.057129
 20
-1684.854492
 10
1222.5
 20
-1684.700195
 10
1222.499878
 20
-1677.100098
 10
1223.057129
 20
-1676.945557
 10
1224.078491
 20
-1678.645508
 42
0.776162
 10
1225.000366
 20
-1678.40918
 10
1225.0
 20
-1674.800049
 42
0.414214
 10
1221.0
 20
-1670.800049
 10
1217.615967
 20
-1670.800049
 42
0.217187
 10
1216.110596
 20
-1671.48645
 42
0.629276
 10
1216.499023
 20
-1672.300049
 10
1221.0
 20
-1672.300049
 42
-0.378639
 10
1223.481079
 20
-1674.493408
 42
-0.358301
 10
1222.5
 20
-1675.300049
 42
0.414214
 10
1221.0
 20
-1676.800049
 10
1221.0
 20
-1685.0
 10
1202.0
 20
-1685.0
 10
1202.0
 20
-1686.5
 10
1205.5
 20
-1686.5
 42
-0.414214
 10
1206.5
 20
-1687.5
 10
1206.5
 20
-1714.0
  0
LWPOLYLINE
  5
52
100
AcDbEntity
  8
LAYER22
370
    25
390
0
  6
Continuous
 62
     2
100
AcDbPolyline
 90
       30
 70
     0
 10
1208.5
 20
-1714.0
 10
1208.5
 20
-1741.5
 10
1222.5
 20
-1741.5
 42
0.414214
 10
1223.5
 20
-1740.5
 10
1223.5
 20
-1737.25
 42
-0.647625
 10
1224.333374
 20
-1736.876831
 42
-0.213431
 10
1225.0
 20
-1738.367432
 10
1224.999878
 20
-1744.609131
 42
-0.744972
 10
1224.098877
 20
-1744.878418
 10
1223.057129
 20
-1743.145508
 10
1222.5
 20
-1743.299805
 10
1222.499878
 20
-1750.899902
 10
1223.057129
 20
-1751.054443
 10
1224.078491
 20
-1749.354492
 42
-0.776162
 10
1225.000366
 20
-1749.59082
 10
1225.0
 20
-1753.199951
 42
-0.414214
 10
1221.0
 20
-1757.199951
 10
1217.615967
 20
-1757.199951
 42
-0.217187
 10
1216.110596
 20
-1756.51355
 42
-0.629276
 10
1216.499023
 20
-1755.699951
 10
1221.0
 20
-1755.699951
 42
0.378639
 10
1223.481079
 20
-1753.506592
 42
0.358301
 10
1222.5
 20
-1752.699951
 42
-0.414214
 10
1221.0
 20
-1751.199951
 10
1221.0
 20
-1743.0
 10
1202.0
 20
-1743.0
 10
1202.0
 20
-1741.5
 10
1205.5
 20
-1741.5
 42
0.414214
 10
1206.5
 20
-1740.5
 10
1206.5
 20
-1714.0
  0
LWPOLYLINE
  5
53
100
AcDbEntity
  8
LAYER22
370
    18
390
0
  6
Continuous
 62
     1
100
AcDbPolyline
 90
        6
 70
     1
 10
1208.5
 20
-1741.5
 10
1222.5
 20
-1741.5
 42
0.414214
 10
1223.5
 20
-1740.5
 10
1223.5
 20
-1687.5
 42
0.414214
 10
1222.5
 20
-1686.5
 10
1208.5
 20
-1686.5
  0
LWPOLYLINE
  5
54
100
AcDbEntity
  8
LAYER22
370
    25
390
0
  6
Continuous
 62
     2
100
AcDbPolyline
 90
        4
 70
     1
 10
483.0
 20
-1685.0
 10
483.0
 20
-1672.5
 10
1221.001953
 20
-1672.5
 10
1221.001953
 20
-1685.0
  0
LWPOLYLINE
  5
55
100
AcDbEntity
  8
LAYER22
370
    25
390
0
  6
Continuous
 62
     2
100
AcDbPolyline
 90
        4
 70
     1
 10
483.0
 20
-1743.0
 10
483.0
 20
-1755.5
 10
1221.001953
 20
-1755.5
 10
1221.001953
 20
-1743.0
  0
LWPOLYLINE
  5
56
100
AcDbEntity
  8
LAYER22
370
    25
390
0
  6
Continuous
 62
     2
100
AcDbPolyline
 90
       30
 70
     0
 10
495.5
 20
-1714.0
 10
495.5
 20
-1686.5
 10
481.5
 20
-1686.5
 42
0.414214
 10
480.5
 20
-1687.5
 10
480.5
 20
-1690.75
 42
-0.647625
 10
479.666626
 20
-1691.123169
 42
-0.213431
 10
479.000031
 20
-1689.632568
 10
479.000122
 20
-1683.390869
 42
-0.744972
 10
479.901093
 20
-1683.121582
 10
480.942871
 20
-1684.854492
 10
481.5
 20
-1684.700195
 10
481.500122
 20
-1677.100098
 10
480.942871
 20
-1676.945557
 10
479.921509
 20
-1678.645508
 42
-0.776162
 10
478.999603
 20
-1678.40918
 10
479.0
 20
-1674.800049
 42
-0.414214
 10
483.0
 20
-1670.800049
 10
486.384033
 20
-1670.800049
 42
-0.217187
 10
487.889435
 20
-1671.48645
 42
-0.629276
 10
487.500977
 20
-1672.300049
 10
483.0
 20
-1672.300049
 42
0.378639
 10
480.51889
 20
-1674.493408
 42
0.358301
 10
481.5
 20
-1675.300049
 42
-0.414214
 10
483.0
 20
-1676.800049
 10
483.0
 20
-1685.0
 10
502.0
 20
-1685.0
 10
502.0
 20
-1686.5
 10
498.5
 20
-1686.5
 42
0.414214
 10
497.5
 20
-1687.5
 10
497.5
 20
-1714.0
  0
LWPOLYLINE
  5
57
100
AcDbEntity
  8
LAYER22
370
    25
390
0
  6
Continuous
 62
     2
100
AcDbPolyline
 90
       30
 70
     0
 10
495.5
 20
-1714.0
 10
495.5
 20
-1741.5
 10
481.5
 20
-1741.5
 42
-0.414214
 10
480.5
 20
-1740.5
 10
480.5
 20
-1737.25
 42
0.647625
 10
479.666626
 20
-1736.876831
 42
0.213431
 10
479.000031
 20
-1738.367432
 10
479.000122
 20
-1744.609131
 42
0.744972
 10
479.901093
 20
-1744.878418
 10
480.942871
 20
-1743.145508
 10
481.5
 20
-1743.299805
 10
481.500122
 20
-1750.899902
 10
480.942871
 20
-1751.054443
 10
479.921509
 20
-1749.354492
 42
0.776162
 10
478.999603
 20
-1749.59082
 10
479.0
 20
-1753.199951
 42
0.414214
 10
483.0
 20
-1757.199951
 10
486.384033
 20
-1757.199951
 42
0.217187
 10
487.889435
 20
-1756.51355
 42
0.629276
 10
487.500977
 20
-1755.699951
 10
483.0
 20
-1755.699951
 42
-0.378639
 10
480.51889
 20
-1753.506592
 42
-0.358301
 10
481.5
 20
-1752.699951
 42
0.414214
 10
483.0
 20
-1751.199951
 10
483.0
 20
-1743.0
 10
502.0
 20
-1743.0
 10
502.0
 20
-1741.5
 10
498.5
 20
-1741.5
 42
-0.414214
 10
497.5
 20
-1740.5
 10
497.5
 20
-1714.0
  0
LWPOLYLINE
  5
58
100
AcDbEntity
  8
LAYER22
370
    18
390
0
  6
Continuous
 62
     1
100
AcDbPolyline
 90
        6
 70
     1
 10
495.5
 20
-1741.5
 10
481.5
 20
-1741.5
 42
-0.414214
 10
480.5
 20
-1740.5
 10
480.5
 20
-1687.5
 42
-0.414214
 10
481.5
 20
-1686.5
 10
495.5
 20
-1686.5
  0
LWPOLYLINE
  5
59
100
AcDbEntity
  8
LAYER22
370
    25
390
0
  6
Continuous
 62
     2
100
AcDbPolyline
 90
       12
 70
     0
 10
481.5
 20
-1747.099609
 10
481.5
 20
-1743.299561
 10
480.943359
 20
-1743.14502
 10
479.921875
 20
-1744.844727
 42
-0.792023
 10
479.002289
 20
-1744.589478
 10
479.0
 20
-1742.349609
 42
1.0
 10
477.0
 20
-1742.349609
 10
477.0
 20
-1747.099609
 10
477.5
 20
-1747.099609
 10
477.5
 20
-1742.349609
 42
-1.0
 10
478.5
 20
-1742.349609
 10
478.5
 20
-1747.099609
  0
LWPOLYLINE
  5
5A
100
AcDbEntity
  8
LAYER22
370
    25
390
0
  6
Continuous
 62
     2
100
AcDbPolyline
 90
       12
 70
     0
 10
481.5
 20
-1747.099609
 10
481.5
 20
-1750.899414
 10
480.943359
 20
-1751.053955
 10
479.921875
 20
-1749.354004
 42
0.792023
 10
479.002167
 20
-1749.609497
 10
479.0
 20
-1751.849609
 42
-1.0
 10
477.0
 20
-1751.849609
 10
477.0
 20
-1747.099609
 10
477.5
 20
-1747.099609
 10
477.5
 20
-1751.849609
 42
1.0
 10
478.5
 20
-1751.849609
 10
478.5
 20
-1747.099609
  0
LWPOLYLINE
  5
5B
100
AcDbEntity
  8
LAYER22
370
    25
390
0
  6
Continuous
 62
     2
100
AcDbPolyline
 90
       12
 70
     0
 10
481.5
 20
-1680.900391
 10
481.5
 20
-1677.100342
 10
480.943359
 20
-1676.945801
 10
479.921875
 20
-1678.645508
 42
-0.792023
 10
479.002289
 20
-1678.390259
 10
479.0
 20
-1676.150391
 42
1.0
 10
477.0
 20
-1676.150391
 10
477.0
 20
-1680.900391
 10
477.5
 20
-1680.900391
 10
477.5
 20
-1676.150391
 42
-1.0
 10
478.5
 20
-1676.150391
 10
478.5
 20
-1680.900391
  0
LWPOLYLINE
  5
5C
100
AcDbEntity
  8
LAYER22
370
    25
390
0
  6
Continuous
 62
     2
100
AcDbPolyline
 90
       12
 70
     0
 10
481.5
 20
-1680.900391
 10
481.5
 20
-1684.700195
 10
480.943359
 20
-1684.854736
 10
479.921875
 20
-1683.154785
 42
0.792023
 10
479.002167
 20
-1683.410278
 10
479.0
 20
-1685.650391
 42
-1.0
 10
477.0
 20
-1685.650391
 10
477.0
 20
-1680.900391
 10
477.5
 20
-1680.900391
 10
477.5
 20
-1685.650391
 42
1.0
 10
478.5
 20
-1685.650391
 10
478.5
 20
-1680.900391
  0
LWPOLYLINE
  5
5D
100
AcDbEntity
  8
LAYER22
370
    25
390
0
  6
Continuous
 62
     2
100
AcDbPolyline
 90
       12
 70
     0
 10
1222.5
 20
-1747.099609
 10
1222.5
 20
-1743.299561
 10
1223.056641
 20
-1743.14502
 10
1224.078125
 20
-1744.844727
 42
0.792023
 10
1224.997681
 20
-1744.589478
 10
1225.0
 20
-1742.349609
 42
-1.0
 10
1227.0
 20
-1742.349609
 10
1227.0
 20
-1747.099609
 10
1226.5
 20
-1747.099609
 10
1226.5
 20
-1742.349609
 42
1.0
 10
1225.5
 20
-1742.349609
 10
1225.5
 20
-1747.099609
  0
LWPOLYLINE
  5
5E
100
AcDbEntity
  8
LAYER22
370
    25
390
0
  6
Continuous
 62
     2
100
AcDbPolyline
 90
       12
 70
     0
 10
1222.5
 20
-1747.099609
 10
1222.5
 20
-1750.899414
 10
1223.056641
 20
-1751.053955
 10
1224.078125
 20
-1749.354004
 42
-0.792023
 10
1224.997803
 20
-1749.609497
 10
1225.0
 20
-1751.849609
 42
1.0
 10
1227.0
 20
-1751.849609
 10
1227.0
 20
-1747.099609
 10
1226.5
 20
-1747.099609
 10
1226.5
 20
-1751.849609
 42
-1.0
 10
1225.5
 20
-1751.849609
 10
1225.5
 20
-1747.099609
  0
LWPOLYLINE
  5
5F
100
AcDbEntity
  8
LAYER22
370
    25
390
0
  6
Continuous
 62
     2
100
AcDbPolyline
 90
       12
 70
     0
 10
1222.5
 20
-1680.900391
 10
1222.5
 20
-1677.100342
 10
1223.056641
 20
-1676.945801
 10
1224.078125
 20
-1678.645508
 42
0.792023
 10
1224.997681
 20
-1678.390259
 10
1225.0
 20
-1676.150391
 42
-1.0
 10
1227.0
 20
-1676.150391
 10
1227.0
 20
-1680.900391
 10
1226.5
 20
-1680.900391
 10
1226.5
 20
-1676.150391
 42
1.0
 10
1225.5
 20
-1676.150391
 10
1225.5
 20
-1680.900391
  0
LWPOLYLINE
  5
60
100
AcDbEntity
  8
LAYER22
370
    25
390
0
  6
Continuous
 62
     2
100
AcDbPolyline
 90
       12
 70
     0
 10
1222.5
 20
-1680.900391
 10
1222.5
 20
-1684.700195
 10
1223.056641
 20
-1684.854736
 10
1224.078125
 20
-1683.154785
 42
-0.792023
 10
1224.997803
 20
-1683.410278
 10
1225.0
 20
-1685.650391
 42
1.0
 10
1227.0
 20
-1685.650391
 10
1227.0
 20
-1680.900391
 10
1226.5
 20
-1680.900391
 10
1226.5
 20
-1685.650391
 42
-1.0
 10
1225.5
 20
-1685.650391
 10
1225.5
 20
-1680.900391
  0
CIRCLE
  5
61
100
AcDbEntity
  8
LAYER22
390
0
  6
Continuous
 62
     1
100
AcDbCircle
 10
-273.0
 20
-1666.500732
 30
0.0
 40
4.0
  0
LWPOLYLINE
  5
62
100
AcDbEntity
  8
LAYER22
370
    18
390
0
  6
Continuous
 62
     1
100
AcDbPolyline
 90
       14
 70
     0
 10
-274.394531
 20
-1670.250488
 10
-273.0
 20
-1673.518799
 10
-273.0
 20
-1673.518799
 10
-273.0
 20
-1690.500732
 42
-0.414214
 10
-276.0
 20
-1693.500732
 10
-276.5
 20
-1693.500732
 10
-276.5
 20
-1691.500732
 10
-276.0
 20
-1691.500732
 42
0.414214
 10
-275.0
 20
-1690.500732
 10
-275.0
 20
-1673.500732
 10
-277.541016
 20
-1667.572998
 42
-0.237479
 10
-277.32019
 20
-1663.983032
 42
-1.727925
 10
-273.0
 20
-1671.500977
 10
-273.0
 20
-1670.500732
  0
LWPOLYLINE
  5
63
100
AcDbEntity
  8
LAYER22
370
    18
390
0
  6
Continuous
 62
     1
100
AcDbPolyline
 90
        8
 70
     1
 10
-273.0
 20
-1673.518799
 10
-271.0
 20
-1673.518799
 10
-271.0
 20
-1690.500732
 42
0.414214
 10
-270.0
 20
-1691.500732
 10
-269.5
 20
-1691.500732
 10
-269.5
 20
-1693.500732
 10
-270.0
 20
-1693.500732
 42
-0.414214
 10
-273.0
 20
-1690.500732
  0
CIRCLE
  5
64
100
AcDbEntity
  8
LAYER22
390
0
  6
Continuous
 62
     1
100
AcDbCircle
 10
477.0
 20
-1761.499268
 30
0.0
 40
4.0
  0
LWPOLYLINE
  5
65
100
AcDbEntity
  8
LAYER22
370
    18
390
0
  6
Continuous
 62
     1
100
AcDbPolyline
 90
       14
 70
     0
 10
478.394531
 20
-1757.749512
 10
477.0
 20
-1754.481201
 10
477.0
 20
-1754.481201
 10
477.0
 20
-1737.499268
 42
-0.414214
 10
480.0
 20
-1734.499268
 10
480.5
 20
-1734.499268
 10
480.5
 20
-1736.499268
 10
480.0
 20
-1736.499268
 42
0.414214
 10
479.0
 20
-1737.499268
 10
479.0
 20
-1754.499268
 10
481.541016
 20
-1760.427002
 42
-0.237479
 10
481.32019
 20
-1764.016968
 42
-1.727925
 10
477.0
 20
-1756.499023
 10
477.0
 20
-1757.499268
  0
LWPOLYLINE
  5
66
100
AcDbEntity
  8
LAYER22
370
    18
390
0
  6
Continuous
 62
     1
100
AcDbPolyline
 90
        8
 70
     1
 10
477.0
 20
-1754.481201
 10
475.0
 20
-1754.481201
 10
475.0
 20
-1737.499268
 42
0.414214
 10
474.0
 20
-1736.499268
 10
473.5
 20
-1736.499268
 10
473.5
 20
-1734.499268
 10
474.0
 20
-1734.499268
 42
-0.414214
 10
477.0
 20
-1737.499268
  0
CIRCLE
  5
67
100
AcDbEntity
  8
LAYER22
390
0
  6
Continuous
 62
     1
100
AcDbCircle
 10
1227.0
 20
-1666.500732
 30
0.0
 40
4.0
  0
LWPOLYLINE
  5
68
100
AcDbEntity
  8
LAYER22
370
    18
390
0
  6
Continuous
 62
     1
100
AcDbPolyline
 90
       14
 70
     0
 10
1225.605469
 20
-1670.250488
 10
1227.0
 20
-1673.518799
 10
1227.0
 20
-1673.518799
 10
1227.0
 20
-1690.500732
 42
-0.414214
 10
1224.0
 20
-1693.500732
 10
1223.5
 20
-1693.500732
 10
1223.5
 20
-1691.500732
 10
1224.0
 20
-1691.500732
 42
0.414214
 10
1225.0
 20
-1690.500732
 10
1225.0
 20
-1673.500732
 10
1222.458984
 20
-1667.572998
 42
-0.237479
 10
1222.67981
 20
-1663.983032
 42
-1.727925
 10
1227.0
 20
-1671.500977
 10
1227.0
 20
-1670.500732
  0
LWPOLYLINE
  5
69
100
AcDbEntity
  8
LAYER22
370
    18
390
0
  6
Continuous
 62
     1
100
AcDbPolyline
 90
        8
 70
     1
 10
1227.0
 20
-1673.518799
 10
1229.0
 20
-1673.518799
 10
1229.0
 20
-1690.500732
 42
0.414214
 10
1230.0
 20
-1691.500732
 10
1230.5
 20
-1691.500732
 10
1230.5
 20
-1693.500732
 10
1230.0
 20
-1693.500732
 42
-0.414214
 10
1227.0
 20
-1690.500732
  0
LWPOLYLINE
  5
6A
100
AcDbEntity
  8
LAYER22
370
    25
390
0
  6
Continuous
 62
     2
100
AcDbPolyline
 90
       30
 70
     0
 10
2147.900635
 20
-1714.000977
 10
2147.900635
 20
-1686.500977
 10
2133.900635
 20
-1686.500977
 42
0.414214
 10
2132.900635
 20
-1687.500977
 10
2132.900635
 20
-1690.750977
 42
-0.647683
 10
2132.067139
 20
-1691.124146
 42
-0.21342
 10
2131.400635
 20
-1689.633545
 10
2131.400635
 20
-1683.391846
 42
-0.744922
 10
2132.301758
 20
-1683.122681
 10
2133.343506
 20
-1684.855469
 10
2133.900635
 20
-1684.701172
 10
2133.900635
 20
-1677.101074
 10
2133.343506
 20
-1676.946533
 10
2132.322021
 20
-1678.646484
 42
-0.776162
 10
2131.400146
 20
-1678.410156
 10
2131.400635
 20
-1674.801025
 42
-0.414214
 10
2135.400635
 20
-1670.801025
 10
2159.784668
 20
-1670.801025
 42
-0.217187
 10
2161.290283
 20
-1671.487427
 42
-0.629276
 10
2160.901611
 20
-1672.301147
 10
2135.400635
 20
-1672.301025
 42
0.378639
 10
2132.919434
 20
-1674.494385
 42
0.358304
 10
2133.900635
 20
-1675.301025
 42
-0.414214
 10
2135.400635
 20
-1676.801025
 10
2135.400635
 20
-1685.000977
 10
2154.400635
 20
-1685.000977
 10
2154.400635
 20
-1686.500977
 10
2150.900635
 20
-1686.500977
 42
0.414214
 10
2149.900635
 20
-1687.500977
 10
2149.900635
 20
-1714.000977
  0
LWPOLYLINE
  5
6B
100
AcDbEntity
  8
LAYER22
370
    25
390
0
  6
Continuous
 62
     2
100
AcDbPolyline
 90
       30
 70
     0
 10
2147.900635
 20
-1714.000977
 10
2147.900635
 20
-1741.500977
 10
2133.900635
 20
-1741.500977
 42
-0.414214
 10
2132.900635
 20
-1740.500977
 10
2132.900635
 20
-1737.250977
 42
0.647683
 10
2132.067139
 20
-1736.877808
 42
0.21342
 10
2131.400635
 20
-1738.368408
 10
2131.400635
 20
-1744.610107
 42
0.744922
 10
2132.301758
 20
-1744.879272
 10
2133.343506
 20
-1743.146484
 10
2133.900635
 20
-1743.300781
 10
2133.900635
 20
-1750.900879
 10
2133.343506
 20
-1751.05542
 10
2132.322021
 20
-1749.355469
 42
0.776162
 10
2131.400146
 20
-1749.591797
 10
2131.400635
 20
-1753.200928
 42
0.414214
 10
2135.400635
 20
-1757.200928
 10
2159.784668
 20
-1757.200928
 42
0.217187
 10
2161.290283
 20
-1756.514526
 42
0.629276
 10
2160.901611
 20
-1755.700806
 10
2135.400635
 20
-1755.700928
 42
-0.378639
 10
2132.919434
 20
-1753.507568
 42
-0.358304
 10
2133.900635
 20
-1752.700928
 42
0.414214
 10
2135.400635
 20
-1751.200928
 10
2135.400635
 20
-1743.000977
 10
2154.400635
 20
-1743.000977
 10
2154.400635
 20
-1741.500977
 10
2150.900635
 20
-1741.500977
 42
-0.414214
 10
2149.900635
 20
-1740.500977
 10
2149.900635
 20
-1714.000977
  0
LWPOLYLINE
  5
6C
100
AcDbEntity
  8
LAYER22
370
    18
390
0
  6
Continuous
 62
     1
100
AcDbPolyline
 90
        6
 70
     1
 10
2147.900635
 20
-1741.500977
 10
2133.900635
 20
-1741.500977
 42
-0.414214
 10
2132.900635
 20
-1740.500977
 10
2132.900635
 20
-1687.500977
 42
-0.414214
 10
2133.900635
 20
-1686.500977
 10
2147.900635
 20
-1686.500977
  0
LWPOLYLINE
  5
6D
100
AcDbEntity
  8
LAYER22
370
    25
390
0
  6
Continuous
 62
     2
100
AcDbPolyline
 90
       21
 70
     0
 10
2175.0
 20
-1714.000977
 10
2175.0
 20
-1694.750977
 10
2176.25
 20
-1694.750977
 42
1.0
 10
2176.25
 20
-1693.250977
 10
2175.0
 20
-1693.250977
 10
2175.0
 20
-1674.500977
 10
2176.25
 20
-1674.500977
 42
1.0
 10
2176.25
 20
-1673.000977
 10
2147.75
 20
-1673.000977
 42
1.0
 10
2147.75
 20
-1674.500977
 10
2151.5
 20
-1674.500977
 10
2151.5
 20
-1681.750977
 42
1.0
 10
2153.0
 20
-1681.750977
 10
2153.0
 20
-1674.500977
 10
2158.998291
 20
-1674.500977
 10
2159.0
 20
-1681.750977
 42
1.0
 10
2160.5
 20
-1681.750977
 10
2160.5
 20
-1674.500977
 10
2172.0
 20
-1674.500977
 42
-0.414214
 10
2173.0
 20
-1675.500977
 10
2173.0
 20
-1714.000977
  0
LWPOLYLINE
  5
6E
100
AcDbEntity
  8
LAYER22
370
    25
390
0
  6
Continuous
 62
     2
100
AcDbPolyline
 90
       21
 70
     0
 10
2175.0
 20
-1714.000977
 10
2175.0
 20
-1733.250977
 10
2176.25
 20
-1733.250977
 42
-1.0
 10
2176.25
 20
-1734.750977
 10
2175.0
 20
-1734.750977
 10
2175.0
 20
-1753.500977
 10
2176.25
 20
-1753.500977
 42
-1.0
 10
2176.25
 20
-1755.000977
 10
2147.75
 20
-1755.000977
 42
-1.0
 10
2147.75
 20
-1753.500977
 10
2151.5
 20
-1753.500977
 10
2151.5
 20
-1746.250977
 42
-1.0
 10
2153.0
 20
-1746.250977
 10
2153.0
 20
-1753.500977
 10
2158.998291
 20
-1753.500977
 10
2159.0
 20
-1746.250977
 42
-1.0
 10
2160.5
 20
-1746.250977
 10
2160.5
 20
-1753.500977
 10
2172.0
 20
-1753.500977
 42
0.414214
 10
2173.0
 20
-1752.500977
 10
2173.0
 20
-1714.000977
  0
LWPOLYLINE
  5
6F
100
AcDbEntity
  8
LAYER22
370
    25
390
0
  6
Continuous
 62
     2
100
AcDbPolyline
 90
       12
 70
     1
 10
2131.400391
 20
-1766.25
 42
-0.414214
 10
2130.900391
 20
-1766.75
 10
2101.900391
 20
-1766.75
 42
-0.414214
 10
2101.400391
 20
-1766.25
 10
2101.400391
 20
-1764.25
 42
-0.414214
 10
2101.900391
 20
-1763.75
 10
2126.400391
 20
-1763.75
 42
0.414214
 10
2128.400391
 20
-1761.75
 10
2128.400391
 20
-1737.25
 42
-0.414214
 10
2128.900391
 20
-1736.75
 10
2130.900391
 20
-1736.75
 42
-0.414214
 10
2131.400391
 20
-1737.25
  0
LWPOLYLINE
  5
70
100
AcDbEntity
  8
LAYER22
370
    25
390
0
  6
Continuous
 62
     2
100
AcDbPolyline
 90
       12
 70
     0
 10
2105.900391
 20
-1763.75
 10
2101.900391
 20
-1763.75
 10
2101.900391
 20
-1759.75
 42
-1.0
 10
2109.900391
 20
-1759.75
 10
2109.900391
 20
-1763.75
 10
2105.900391
 20
-1763.75
 10
2105.900391
 20
-1762.25
 10
2108.400391
 20
-1762.25
 10
2108.400391
 20
-1759.75
 42
1.0
 10
2103.400391
 20
-1759.75
 10
2103.400391
 20
-1762.25
 10
2105.900391
 20
-1762.25
  0
LWPOLYLINE
  5
71
100
AcDbEntity
  8
LAYER22
370
    25
390
0
  6
Continuous
 62
     2
100
AcDbPolyline
 90
       12
 70
     0
 10
2113.900391
 20
-1763.75
 10
2109.900391
 20
-1763.75
 10
2109.900391
 20
-1759.75
 42
-1.0
 10
2117.900391
 20
-1759.75
 10
2117.900391
 20
-1763.75
 10
2113.900391
 20
-1763.75
 10
2113.900391
 20
-1762.25
 10
2116.400391
 20
-1762.25
 10
2116.400391
 20
-1759.75
 42
1.0
 10
2111.400391
 20
-1759.75
 10
2111.400391
 20
-1762.25
 10
2113.900391
 20
-1762.25
  0
LWPOLYLINE
  5
72
100
AcDbEntity
  8
LAYER22
370
    25
390
0
  6
Continuous
 62
     2
100
AcDbPolyline
 90
       30
 70
     0
 10
-291.5
 20
-1714.0
 10
-291.5
 20
-1741.5
 10
-277.5
 20
-1741.5
 42
0.414214
 10
-276.5
 20
-1740.5
 10
-276.5
 20
-1737.25
 42
-0.647683
 10
-275.666626
 20
-1736.876831
 42
-0.21342
 10
-275.000031
 20
-1738.367432
 10
-275.0
 20
-1744.609131
 42
-0.744922
 10
-275.901001
 20
-1744.878296
 10
-276.942871
 20
-1743.145508
 10
-277.5
 20
-1743.299805
 10
-277.5
 20
-1750.899902
 10
-276.942871
 20
-1751.054443
 10
-275.921387
 20
-1749.354492
 42
-0.776162
 10
-274.999481
 20
-1749.59082
 10
-275.0
 20
-1753.199951
 42
-0.414214
 10
-279.0
 20
-1757.199951
 10
-303.384033
 20
-1757.199951
 42
-0.217187
 10
-304.889557
 20
-1756.51355
 42
-0.629276
 10
-304.500977
 20
-1755.699829
 10
-279.0
 20
-1755.699951
 42
0.378639
 10
-276.51889
 20
-1753.506592
 42
0.358304
 10
-277.5
 20
-1752.699951
 42
-0.414214
 10
-279.0
 20
-1751.199951
 10
-279.0
 20
-1743.0
 10
-298.0
 20
-1743.0
 10
-298.0
 20
-1741.5
 10
-294.5
 20
-1741.5
 42
0.414214
 10
-293.5
 20
-1740.5
 10
-293.5
 20
-1714.0
  0
LWPOLYLINE
  5
73
100
AcDbEntity
  8
LAYER22
370
    25
390
0
  6
Continuous
 62
     2
100
AcDbPolyline
 90
       30
 70
     0
 10
-291.5
 20
-1714.0
 10
-291.5
 20
-1686.5
 10
-277.5
 20
-1686.5
 42
-0.414214
 10
-276.5
 20
-1687.5
 10
-276.5
 20
-1690.75
 42
0.647683
 10
-275.666626
 20
-1691.123169
 42
0.21342
 10
-275.000031
 20
-1689.632568
 10
-275.0
 20
-1683.390869
 42
0.744922
 10
-275.901001
 20
-1683.121704
 10
-276.942871
 20
-1684.854492
 10
-277.5
 20
-1684.700195
 10
-277.5
 20
-1677.100098
 10
-276.942871
 20
-1676.945557
 10
-275.921387
 20
-1678.645508
 42
0.776162
 10
-274.999481
 20
-1678.40918
 10
-275.0
 20
-1674.800049
 42
0.414214
 10
-279.0
 20
-1670.800049
 10
-303.384033
 20
-1670.800049
 42
0.217187
 10
-304.889557
 20
-1671.48645
 42
0.629276
 10
-304.500977
 20
-1672.300171
 10
-279.0
 20
-1672.300049
 42
-0.378639
 10
-276.51889
 20
-1674.493408
 42
-0.358304
 10
-277.5
 20
-1675.300049
 42
0.414214
 10
-279.0
 20
-1676.800049
 10
-279.0
 20
-1685.0
 10
-298.0
 20
-1685.0
 10
-298.0
 20
-1686.5
 10
-294.5
 20
-1686.5
 42
-0.414214
 10
-293.5
 20
-1687.5
 10
-293.5
 20
-1714.0
  0
LWPOLYLINE
  5
74
100
AcDbEntity
  8
LAYER22
370
    18
390
0
  6
Continuous
 62
     1
100
AcDbPolyline
 90
        6
 70
     1
 10
-291.5
 20
-1686.5
 10
-277.5
 20
-1686.5
 42
-0.414214
 10
-276.5
 20
-1687.5
 10
-276.5
 20
-1740.5
 42
-0.414214
 10
-277.5
 20
-1741.5
 10
-291.5
 20
-1741.5
  0
LWPOLYLINE
  5
75
100
AcDbEntity
  8
LAYER22
370
    25
390
0
  6
Continuous
 62
     2
100
AcDbPolyline
 90
       21
 70
     0
 10
-321.0
 20
-1714.0
 10
-321.0
 20
-1733.25
 10
-322.25
 20
-1733.25
 42
1.0
 10
-322.25
 20
-1734.75
 10
-321.0
 20
-1734.75
 10
-321.0
 20
-1753.5
 10
-322.25
 20
-1753.5
 42
1.0
 10
-322.25
 20
-1755.0
 10
-293.75
 20
-1755.0
 42
1.0
 10
-293.75
 20
-1753.5
 10
-297.5
 20
-1753.5
 10
-297.5
 20
-1746.25
 42
1.0
 10
-299.0
 20
-1746.25
 10
-299.0
 20
-1753.5
 10
-304.998291
 20
-1753.5
 10
-305.0
 20
-1746.25
 42
1.0
 10
-306.5
 20
-1746.25
 10
-306.5
 20
-1753.5
 10
-318.0
 20
-1753.5
 42
-0.414214
 10
-319.0
 20
-1752.5
 10
-319.0
 20
-1714.0
  0
LWPOLYLINE
  5
76
100
AcDbEntity
  8
LAYER22
370
    25
390
0
  6
Continuous
 62
     2
100
AcDbPolyline
 90
       21
 70
     0
 10
-321.0
 20
-1714.0
 10
-321.0
 20
-1694.75
 10
-322.25
 20
-1694.75
 42
-1.0
 10
-322.25
 20
-1693.25
 10
-321.0
 20
-1693.25
 10
-321.0
 20
-1674.5
 10
-322.25
 20
-1674.5
 42
-1.0
 10
-322.25
 20
-1673.0
 10
-293.75
 20
-1673.0
 42
-1.0
 10
-293.75
 20
-1674.5
 10
-297.5
 20
-1674.5
 10
-297.5
 20
-1681.75
 42
-1.0
 10
-299.0
 20
-1681.75
 10
-299.0
 20
-1674.5
 10
-304.998291
 20
-1674.5
 10
-305.0
 20
-1681.75
 42
-1.0
 10
-306.5
 20
-1681.75
 10
-306.5
 20
-1674.5
 10
-318.0
 20
-1674.5
 42
0.414214
 10
-319.0
 20
-1675.5
 10
-319.0
 20
-1714.0
  0
LWPOLYLINE
  5
77
100
AcDbEntity
  8
LAYER22
370
    13
390
0
  6
Continuous
 62
     5
100
AcDbPolyline
 90
        2
 70
     0
 10
477.0
 20
-1636.746094
 10
1227.0
 20
-1636.746094
  0
LWPOLYLINE
  5
78
100
AcDbEntity
  8
LAYER22
370
    18
390
0
  6
Continuous
 62
     1
100
AcDbPolyline
 90
        2
 70
     0
 10
476.999969
 20
-1634.246094
 10
476.999969
 20
-1644.246094
  0
LWPOLYLINE
  5
79
100
AcDbEntity
  8
LAYER22
370
    18
390
0
  6
Continuous
 62
     1
100
AcDbPolyline
 90
        2
 70
     0
 10
1227.0
 20
-1634.246094
 10
1227.0
 20
-1644.246094
  0
MTEXT
  5
7A
100
AcDbEntity
  8
LAYER22
390
0
 62
     2
100
AcDbMText
 10
852.0
 20
-1632.579468
 30
0.0
 40
11.25
 41
0.0
 71
     8
 72
     1
  1
750
 11
1.0
 21
0.0
 31
0.0
 73
     1
 44
1.333333
  0
LWPOLYLINE
  5
7B
100
AcDbEntity
  8
LAYER22
370
    13
390
0
  6
Continuous
 62
     5
100
AcDbPolyline
 90
        2
 70
     0
 10
1227.0
 20
-1636.746094
 10
2127.0
 20
-1636.746094
  0
LWPOLYLINE
  5
7C
100
AcDbEntity
  8
LAYER22
370
    18
390
0
  6
Continuous
 62
     1
100
AcDbPolyline
 90
        2
 70
     0
 10
1227.0
 20
-1634.246094
 10
1227.0
 20
-1644.246094
  0
LWPOLYLINE
  5
7D
100
AcDbEntity
  8
LAYER22
370
    18
390
0
  6
Continuous
 62
     1
100
AcDbPolyline
 90
        2
 70
     0
 10
2127.0
 20
-1634.246094
 10
2127.0
 20
-1644.246094
  0
MTEXT
  5
7E
100
AcDbEntity
  8
LAYER22
390
0
 62
     2
100
AcDbMText
 10
1677.0
 20
-1632.579468
 30
0.0
 40
11.25
 41
0.0
 71
     8
 72
     1
  1
900
 11
1.0
 21
0.0
 31
0.0
 73
     1
 44
1.333333
  0
LWPOLYLINE
  5
7F
100
AcDbEntity
  8
LAYER22
370
    13
390
0
  6
Continuous
 62
     5
100
AcDbPolyline
 90
        2
 70
     0
 10
2127.0
 20
-1636.746094
 10
2177.0
 20
-1636.746094
  0
LWPOLYLINE
  5
80
100
AcDbEntity
  8
LAYER22
370
    18
390
0
  6
Continuous
 62
     1
100
AcDbPolyline
 90
        2
 70
     0
 10
2127.0
 20
-1634.246094
 10
2127.0
 20
-1644.246094
  0
LWPOLYLINE
  5
81
100
AcDbEntity
  8
LAYER22
370
    18
390
0
  6
Continuous
 62
     1
100
AcDbPolyline
 90
        2
 70
     0
 10
2177.0
 20
-1634.246094
 10
2177.0
 20
-1644.246094
  0
MTEXT
  5
82
100
AcDbEntity
  8
LAYER22
390
0
 62
     2
100
AcDbMText
 10
2152.0
 20
-1632.579468
 30
0.0
 40
11.25
 41
0.0
 71
     8
 72
     1
  1
50
 11
1.0
 21
0.0
 31
0.0
 73
     1
 44
1.333333
  0
LWPOLYLINE
  5
83
100
AcDbEntity
  8
LAYER22
370
    25
390
0
  6
Continuous
 62
     2
100
AcDbPolyline
 90
       38
 70
     0
 10
-1851.0
 20
1171.0
 10
-1793.0
 20
1171.0
 10
-1792.5
 20
1170.5
 10
-1792.5
 20
1131.5
 10
-1793.0
 20
1131.0
 10
-1794.5
 20
1131.0
 10
-1795.0
 20
1131.5
 10
-1795.0
 20
1165.0
 42
0.414214
 10
-1797.0
 20
1167.0
 10
-1810.0
 20
1167.0
 42
0.414214
 10
-1812.0
 20
1165.0
 10
-1812.0
 20
1121.5
 10
-1812.5
 20
1121.0
 10
-1841.5
 20
1121.0
 10
-1842.0
 20
1121.5
 10
-1842.0
 20
1128.0
 10
-1841.5
 20
1128.5
 10
-1840.0
 20
1128.5
 10
-1839.5
 20
1128.0
 10
-1839.5
 20
1126.5
 42
0.414214
 10
-1837.5
 20
1124.5
 10
-1820.5
 20
1124.5
 42
0.414214
 10
-1818.5
 20
1126.5
 10
-1818.5
 20
1128.5
 10
-1815.5
 20
1131.5
 10
-1815.5
 20
1158.0
 10
-1818.5
 20
1161.0
 10
-1818.5
 20
1165.0
 42
0.414214
 10
-1820.5
 20
1167.0
 10
-1837.5
 20
1167.0
 42
0.414214
 10
-1839.5
 20
1165.0
 10
-1839.5
 20
1161.5
 10
-1840.0
 20
1161.0
 10
-1841.5
 20
1161.0
 10
-1842.0
 20
1161.5
 10
-1842.0
 20
1166.5
 10
-1842.5
 20
1167.0
 10
-1851.0
 20
1167.0
  0
LWPOLYLINE
  5
84
100
AcDbEntity
  8
LAYER22
370
    25
390
0
  6
Continuous
 62
     2
100
AcDbPolyline
 90
       38
 70
     0
 10
-1851.0
 20
1171.0
 10
-1909.0
 20
1171.0
 10
-1909.5
 20
1170.5
 10
-1909.5
 20
1131.5
 10
-1909.0
 20
1131.0
 10
-1907.5
 20
1131.0
 10
-1907.0
 20
1131.5
 10
-1907.0
 20
1165.0
 42
-0.414214
 10
-1905.0
 20
1167.0
 10
-1892.0
 20
1167.0
 42
-0.414214
 10
-1890.0
 20
1165.0
 10
-1890.0
 20
1121.5
 10
-1889.5
 20
1121.0
 10
-1860.5
 20
1121.0
 10
-1860.0
 20
1121.5
 10
-1860.0
 20
1128.0
 10
-1860.5
 20
1128.5
 10
-1862.0
 20
1128.5
 10
-1862.5
 20
1128.0
 10
-1862.5
 20
1126.5
 42
-0.414214
 10
-1864.5
 20
1124.5
 10
-1881.5
 20
1124.5
 42
-0.414214
 10
-1883.5
 20
1126.5
 10
-1883.5
 20
1128.5
 10
-1886.5
 20
1131.5
 10
-1886.5
 20
1158.0
 10
-1883.5
 20
1161.0
 10
-1883.5
 20
1165.0
 42
-0.414214
 10
-1881.5
 20
1167.0
 10
-1864.5
 20
1167.0
 42
-0.414214
 10
-1862.5
 20
1165.0
 10
-1862.5
 20
1161.5
 10
-1862.0
 20
1161.0
 10
-1860.5
 20
1161.0
 10
-1860.0
 20
1161.5
 10
-1860.0
 20
1166.5
 10
-1859.5
 20
1167.0
 10
-1851.0
 20
1167.0
  0
LWPOLYLINE
  5
85
100
AcDbEntity
  8
LAYER22
370
    18
390
0
  6
Continuous
 62
     1
100
AcDbPolyline
 90
        8
 70
     1
 10
-1873.0
 20
1153.899902
 10
-1872.400391
 20
1154.5
 10
-1864.599609
 20
1154.5
 10
-1864.0
 20
1153.899902
 10
-1864.0
 20
1125.100098
 10
-1864.599609
 20
1124.5
 10
-1872.400391
 20
1124.5
 10
-1873.0
 20
1125.100098
  0
LWPOLYLINE
  5
86
100
AcDbEntity
  8
LAYER22
370
    18
390
0
  6
Continuous
 62
     1
100
AcDbPolyline
 90
        8
 70
     1
 10
-1873.0
 20
1131.5
 10
-1874.5
 20
1131.5
 10
-1874.5
 20
1134.5
 10
-1875.5
 20
1134.5
 10
-1875.5
 20
1144.5
 10
-1874.5
 20
1144.5
 10
-1874.5
 20
1147.5
 10
-1873.0
 20
1147.5
  0
LWPOLYLINE
  5
87
100
AcDbEntity
  8
LAYER22
370
    18
390
0
  6
Continuous
 62
     1
100
AcDbPolyline
 90
        4
 70
     1
 10
-1864.0
 20
1147.0
 10
-1861.0
 20
1147.0
 10
-1861.0
 20
1132.0
 10
-1864.0
 20
1132.0
  0
LWPOLYLINE
  5
88
100
AcDbEntity
  8
LAYER22
370
    18
390
0
  6
Continuous
 62
     1
100
AcDbPolyline
 90
        4
 70
     1
 10
-1861.0
 20
1129.5
 10
-1861.0
 20
1149.5
 10
-1841.0
 20
1149.5
 10
-1841.0
 20
1129.5
  0
LWPOLYLINE
  5
89
100
AcDbEntity
  8
LAYER22
370
    18
390
0
  6
Continuous
 62
     1
100
AcDbPolyline
 90
        6
 70
     1
 10
-1861.550781
 20
1151.453125
 10
-1861.550781
 20
1157.452637
 10
-1858.912109
 20
1158.953125
 10
-1843.087891
 20
1158.953125
 10
-1840.449219
 20
1157.453125
 10
-1840.449219
 20
1151.453125
  0
LWPOLYLINE
  5
8A
100
AcDbEntity
  8
LAYER22
370
    18
390
0
  6
Continuous
 62
     1
100
AcDbPolyline
 90
        5
 70
     0
 10
-1858.912109
 20
1158.953125
 10
-1856.275391
 20
1157.453125
 10
-1851.0
 20
1158.953125
 10
-1845.724609
 20
1157.453125
 10
-1843.087891
 20
1158.953125
  0
LWPOLYLINE
  5
8B
100
AcDbEntity
  8
LAYER22
370
    18
390
0
  6
Continuous
 62
     1
100
AcDbPolyline
 90
        2
 70
     0
 10
-1856.275391
 20
1157.453125
 10
-1856.275391
 20
1151.453125
  0
LWPOLYLINE
  5
8C
100
AcDbEntity
  8
LAYER22
370
    18
390
0
  6
Continuous
 62
     1
100
AcDbPolyline
 90
        2
 70
     0
 10
-1845.724609
 20
1157.453125
 10
-1845.724609
 20
1151.453125
  0
LWPOLYLINE
  5
8D
100
AcDbEntity
  8
LAYER22
370
    18
390
0
  6
Continuous
 62
     1
100
AcDbPolyline
 90
        6
 70
     1
 10
-1862.423828
 20
1149.5
 10
-1862.636719
 20
1150.845703
 10
-1857.099609
 20
1151.453125
 10
-1844.900391
 20
1151.453125
 10
-1839.363281
 20
1150.845703
 10
-1839.576172
 20
1149.5
  0
LWPOLYLINE
  5
8E
100
AcDbEntity
  8
LAYER22
370
    18
390
0
  6
Continuous
 62
     1
100
AcDbPolyline
 90
        8
 70
     1
 10
-1858.599609
 20
1118.5
 10
-1859.0
 20
1118.899902
 10
-1859.0
 20
1128.100098
 10
-1858.599609
 20
1128.5
 10
-1843.400391
 20
1128.5
 10
-1843.0
 20
1128.100098
 10
-1843.0
 20
1118.899902
 10
-1843.400391
 20
1118.5
  0
LWPOLYLINE
  5
8F
100
AcDbEntity
  8
LAYER22
370
    18
390
0
  6
Continuous
 62
     1
100
AcDbPolyline
 90
        4
 70
     1
 10
-1857.0
 20
1129.5
 10
-1845.0
 20
1129.5
 10
-1845.0
 20
1128.5
 10
-1857.0
 20
1128.5
  0
LWPOLYLINE
  5
90
100
AcDbEntity
  8
LAYER22
370
    18
390
0
  6
Continuous
 62
     1
100
AcDbPolyline
 90
        4
 70
     1
 10
-1858.0
 20
1118.5
 10
-1844.0
 20
1118.5
 10
-1844.0
 20
1117.5
 10
-1858.0
 20
1117.5
  0
LWPOLYLINE
  5
91
100
AcDbEntity
  8
LAYER22
370
    18
390
0
  6
Continuous
 62
     1
100
AcDbPolyline
 90
        4
 70
     1
 10
-1857.0
 20
1117.5
 10
-1845.0
 20
1117.5
 10
-1845.0
 20
1115.5
 10
-1857.0
 20
1115.5
  0
LWPOLYLINE
  5
92
100
AcDbEntity
  8
LAYER22
370
    18
390
0
  6
Continuous
 62
     1
100
AcDbPolyline
 90
        4
 70
     1
 10
-1846.0
 20
1115.5
 10
-1846.0
 20
1070.899902
 10
-1856.0
 20
1070.899902
 10
-1856.0
 20
1115.5
  0
LWPOLYLINE
  5
93
100
AcDbEntity
  8
LAYER22
370
    18
390
0
  6
Continuous
 62
     1
100
AcDbPolyline
 90
        8
 70
     1
 10
-1829.0
 20
1153.899902
 10
-1829.599609
 20
1154.5
 10
-1837.400391
 20
1154.5
 10
-1838.0
 20
1153.899902
 10
-1838.0
 20
1125.100098
 10
-1837.400391
 20
1124.5
 10
-1829.599609
 20
1124.5
 10
-1829.0
 20
1125.100098
  0
LWPOLYLINE
  5
94
100
AcDbEntity
  8
LAYER22
370
    18
390
0
  6
Continuous
 62
     1
100
AcDbPolyline
 90
        8
 70
     1
 10
-1829.0
 20
1131.5
 10
-1827.5
 20
1131.5
 10
-1827.5
 20
1134.5
 10
-1826.5
 20
1134.5
 10
-1826.5
 20
1144.5
 10
-1827.5
 20
1144.5
 10
-1827.5
 20
1147.5
 10
-1829.0
 20
1147.5
  0
LWPOLYLINE
  5
95
100
AcDbEntity
  8
LAYER22
370
    18
390
0
  6
Continuous
 62
     1
100
AcDbPolyline
 90
        4
 70
     1
 10
-1838.0
 20
1147.0
 10
-1841.0
 20
1147.0
 10
-1841.0
 20
1132.0
 10
-1838.0
 20
1132.0
  0
LWPOLYLINE
  5
96
100
AcDbEntity
  8
LAYER22
370
    25
390
0
  6
Continuous
 62
     2
100
AcDbPolyline
 90
        9
 70
     1
 10
-1811.0
 20
1149.0
 10
-1795.0
 20
1149.0
 10
-1795.0
 20
1096.066406
 10
-1796.0
 20
1096.0
 42
-0.414214
 10
-1803.0
 20
1089.0
 10
-1803.0
 20
1088.0
 10
-1840.0
 20
1088.0
 10
-1840.0
 20
1104.0
 10
-1811.0
 20
1104.0
  0
LWPOLYLINE
  5
97
100
AcDbEntity
  8
LAYER22
370
    25
390
0
  6
Continuous
 62
     2
100
AcDbPolyline
 90
        9
 70
     1
 10
-1891.0
 20
1149.0
 10
-1907.0
 20
1149.0
 10
-1907.0
 20
1096.066406
 10
-1906.0
 20
1096.0
 42
0.414214
 10
-1899.0
 20
1089.0
 10
-1899.0
 20
1088.0
 10
-1862.0
 20
1088.0
 10
-1862.0
 20
1104.0
 10
-1891.0
 20
1104.0
  0
LWPOLYLINE
  5
98
100
AcDbEntity
  8
LAYER22
370
    25
390
0
  6
Continuous
 62
     2
100
AcDbPolyline
 90
       30
 70
     0
 10
-1851.0
 20
1055.899902
 10
-1823.5
 20
1055.899902
 10
-1823.5
 20
1069.899902
 42
0.414214
 10
-1824.5
 20
1070.899902
 10
-1827.75
 20
1070.899902
 42
-0.647625
 10
-1828.123169
 20
1071.733276
 42
-0.213431
 10
-1826.632568
 20
1072.399902
 10
-1820.390869
 20
1072.39978
 42
-0.744972
 10
-1820.121582
 20
1071.498779
 10
-1821.854492
 20
1070.457031
 10
-1821.700195
 20
1069.899902
 10
-1814.100098
 20
1069.89978
 10
-1813.945557
 20
1070.457031
 10
-1815.645508
 20
1071.478394
 42
-0.776162
 10
-1815.40918
 20
1072.400269
 10
-1811.800049
 20
1072.399902
 42
-0.414214
 10
-1807.800049
 20
1068.399902
 10
-1807.800049
 20
1065.015869
 42
-0.217187
 10
-1808.48645
 20
1063.510498
 42
-0.629276
 10
-1809.300049
 20
1063.898926
 10
-1809.300049
 20
1068.399902
 42
0.378639
 10
-1811.493408
 20
1070.880981
 42
0.358301
 10
-1812.300049
 20
1069.899902
 42
-0.414214
 10
-1813.800049
 20
1068.399902
 10
-1822.0
 20
1068.399902
 10
-1822.0
 20
1049.399902
 10
-1823.5
 20
1049.399902
 10
-1823.5
 20
1052.899902
 42
0.414214
 10
-1824.5
 20
1053.899902
 10
-1851.0
 20
1053.899902
  0
LWPOLYLINE
  5
99
100
AcDbEntity
  8
LAYER22
370
    25
390
0
  6
Continuous
 62
     2
100
AcDbPolyline
 90
       30
 70
     0
 10
-1851.0
 20
1055.899902
 10
-1878.5
 20
1055.899902
 10
-1878.5
 20
1069.899902
 42
-0.414214
 10
-1877.5
 20
1070.899902
 10
-1874.25
 20
1070.899902
 42
0.647625
 10
-1873.876831
 20
1071.733276
 42
0.213431
 10
-1875.367432
 20
1072.399902
 10
-1881.609131
 20
1072.39978
 42
0.744972
 10
-1881.878418
 20
1071.498779
 10
-1880.145508
 20
1070.457031
 10
-1880.299805
 20
1069.899902
 10
-1887.899902
 20
1069.89978
 10
-1888.054443
 20
1070.457031
 10
-1886.354492
 20
1071.478394
 42
0.776162
 10
-1886.59082
 20
1072.400269
 10
-1890.199951
 20
1072.399902
 42
0.414214
 10
-1894.199951
 20
1068.399902
 10
-1894.199951
 20
1065.015869
 42
0.217187
 10
-1893.51355
 20
1063.510498
 42
0.629276
 10
-1892.699951
 20
1063.898926
 10
-1892.699951
 20
1068.399902
 42
-0.378639
 10
-1890.506592
 20
1070.880981
 42
-0.358301
 10
-1889.699951
 20
1069.899902
 42
0.414214
 10
-1888.199951
 20
1068.399902
 10
-1880.0
 20
1068.399902
 10
-1880.0
 20
1049.399902
 10
-1878.5
 20
1049.399902
 10
-1878.5
 20
1052.899902
 42
-0.414214
 10
-1877.5
 20
1053.899902
 10
-1851.0
 20
1053.899902
  0
LWPOLYLINE
  5
9A
100
AcDbEntity
  8
LAYER22
370
    18
390
0
  6
Continuous
 62
     1
100
AcDbPolyline
 90
        6
 70
     1
 10
-1878.5
 20
1055.899902
 10
-1878.5
 20
1069.899902
 42
-0.414214
 10
-1877.5
 20
1070.899902
 10
-1824.5
 20
1070.899902
 42
-0.414214
 10
-1823.5
 20
1069.899902
 10
-1823.5
 20
1055.899902
  0
LWPOLYLINE
  5
9B
100
AcDbEntity
  8
LAYER22
370
    25
390
0
  6
Continuous
 62
     2
100
AcDbPolyline
 90
       16
 70
     1
 10
-1884.100098
 20
1069.89978
 10
-1880.299805
 20
1069.89978
 10
-1880.145508
 20
1070.457031
 10
-1881.878418
 20
1071.498291
 10
-1882.100098
 20
1071.909058
 10
-1881.723633
 20
1072.386719
 42
0.856945
 10
-1884.145264
 20
1088.011353
 10
-1884.145264
 20
1087.511353
 42
1.0
 10
-1884.145264
 20
1072.511353
 42
1.0
 10
-1884.145264
 20
1087.511353
 10
-1884.145264
 20
1088.011353
 42
0.871902
 10
-1886.304688
 20
1072.30835
 10
-1886.099609
 20
1071.909058
 10
-1886.321289
 20
1071.498291
 10
-1888.054443
 20
1070.457031
 10
-1887.899902
 20
1069.89978
  0
LWPOLYLINE
  5
9C
100
AcDbEntity
  8
LAYER22
370
    25
390
0
  6
Continuous
 62
     2
100
AcDbPolyline
 90
       16
 70
     1
 10
-1817.899902
 20
1069.89978
 10
-1821.700195
 20
1069.89978
 10
-1821.854492
 20
1070.457031
 10
-1820.121582
 20
1071.498291
 10
-1819.899902
 20
1071.909058
 10
-1820.276367
 20
1072.386719
 42
-0.856945
 10
-1817.854736
 20
1088.011353
 10
-1817.854736
 20
1087.511353
 42
1.0
 10
-1817.854736
 20
1072.511353
 42
1.0
 10
-1817.854736
 20
1087.511353
 10
-1817.854736
 20
1088.011353
 42
-0.871902
 10
-1815.695313
 20
1072.30835
 10
-1815.900391
 20
1071.909058
 10
-1815.678711
 20
1071.498291
 10
-1813.945557
 20
1070.457031
 10
-1814.100098
 20
1069.89978
  0
LWPOLYLINE
  5
9D
100
AcDbEntity
  8
LAYER22
370
    25
390
0
  6
Continuous
 62
     2
100
AcDbPolyline
 90
       30
 70
     0
 10
-1851.0
 20
-1497.0
 10
-1823.5
 20
-1497.0
 10
-1823.5
 20
-1511.0
 42
-0.414214
 10
-1824.5
 20
-1512.0
 10
-1827.75
 20
-1512.0
 42
0.647625
 10
-1828.123169
 20
-1512.833374
 42
0.213431
 10
-1826.632568
 20
-1513.5
 10
-1820.390869
 20
-1513.499878
 42
0.744972
 10
-1820.121582
 20
-1512.598877
 10
-1821.854492
 20
-1511.557129
 10
-1821.700195
 20
-1511.0
 10
-1814.100098
 20
-1510.999878
 10
-1813.945557
 20
-1511.557129
 10
-1815.645508
 20
-1512.578491
 42
0.776162
 10
-1815.40918
 20
-1513.500366
 10
-1811.800049
 20
-1513.5
 42
0.414214
 10
-1807.800049
 20
-1509.5
 10
-1807.800049
 20
-1506.115967
 42
0.217187
 10
-1808.48645
 20
-1504.610596
 42
0.629276
 10
-1809.300049
 20
-1504.999023
 10
-1809.300049
 20
-1509.5
 42
-0.378639
 10
-1811.493408
 20
-1511.981079
 42
-0.358301
 10
-1812.300049
 20
-1511.0
 42
0.414214
 10
-1813.800049
 20
-1509.5
 10
-1822.0
 20
-1509.5
 10
-1822.0
 20
-1490.5
 10
-1823.5
 20
-1490.5
 10
-1823.5
 20
-1494.0
 42
-0.414214
 10
-1824.5
 20
-1495.0
 10
-1851.0
 20
-1495.0
  0
LWPOLYLINE
  5
9E
100
AcDbEntity
  8
LAYER22
370
    25
390
0
  6
Continuous
 62
     2
100
AcDbPolyline
 90
       30
 70
     0
 10
-1851.0
 20
-1497.0
 10
-1878.5
 20
-1497.0
 10
-1878.5
 20
-1511.0
 42
0.414214
 10
-1877.5
 20
-1512.0
 10
-1874.25
 20
-1512.0
 42
-0.647625
 10
-1873.876831
 20
-1512.833374
 42
-0.213431
 10
-1875.367432
 20
-1513.5
 10
-1881.609131
 20
-1513.499878
 42
-0.744972
 10
-1881.878418
 20
-1512.598877
 10
-1880.145508
 20
-1511.557129
 10
-1880.299805
 20
-1511.0
 10
-1887.899902
 20
-1510.999878
 10
-1888.054443
 20
-1511.557129
 10
-1886.354492
 20
-1512.578491
 42
-0.776162
 10
-1886.59082
 20
-1513.500366
 10
-1890.199951
 20
-1513.5
 42
-0.414214
 10
-1894.199951
 20
-1509.5
 10
-1894.199951
 20
-1506.115967
 42
-0.217187
 10
-1893.51355
 20
-1504.610596
 42
-0.629276
 10
-1892.699951
 20
-1504.999023
 10
-1892.699951
 20
-1509.5
 42
0.378639
 10
-1890.506592
 20
-1511.981079
 42
0.358301
 10
-1889.699951
 20
-1511.0
 42
-0.414214
 10
-1888.199951
 20
-1509.5
 10
-1880.0
 20
-1509.5
 10
-1880.0
 20
-1490.5
 10
-1878.5
 20
-1490.5
 10
-1878.5
 20
-1494.0
 42
0.414214
 10
-1877.5
 20
-1495.0
 10
-1851.0
 20
-1495.0
  0
LWPOLYLINE
  5
9F
100
AcDbEntity
  8
LAYER22
370
    18
390
0
  6
Continuous
 62
     1
100
AcDbPolyline
 90
        6
 70
     1
 10
-1878.5
 20
-1497.0
 10
-1878.5
 20
-1511.0
 42
0.414214
 10
-1877.5
 20
-1512.0
 10
-1824.5
 20
-1512.0
 42
0.414214
 10
-1823.5
 20
-1511.0
 10
-1823.5
 20
-1497.0
  0
LWPOLYLINE
  5
A0
100
AcDbEntity
  8
LAYER22
370
    25
390
0
  6
Continuous
 62
     2
100
AcDbPolyline
 90
       16
 70
     1
 10
-1884.100098
 20
-1510.999878
 10
-1880.299805
 20
-1510.999878
 10
-1880.145508
 20
-1511.557129
 10
-1881.878418
 20
-1512.598389
 10
-1882.100098
 20
-1513.009155
 10
-1881.723633
 20
-1513.486816
 42
-0.856945
 10
-1884.145264
 20
-1529.11145
 10
-1884.145264
 20
-1528.61145
 42
1.0
 10
-1884.145264
 20
-1513.61145
 42
1.0
 10
-1884.145264
 20
-1528.61145
 10
-1884.145264
 20
-1529.11145
 42
-0.871902
 10
-1886.304688
 20
-1513.408447
 10
-1886.099609
 20
-1513.009155
 10
-1886.321289
 20
-1512.598389
 10
-1888.054443
 20
-1511.557129
 10
-1887.899902
 20
-1510.999878
  0
LWPOLYLINE
  5
A1
100
AcDbEntity
  8
LAYER22
370
    25
390
0
  6
Continuous
 62
     2
100
AcDbPolyline
 90
       16
 70
     1
 10
-1817.899902
 20
-1510.999878
 10
-1821.700195
 20
-1510.999878
 10
-1821.854492
 20
-1511.557129
 10
-1820.121582
 20
-1512.598389
 10
-1819.899902
 20
-1513.009155
 10
-1820.276367
 20
-1513.486816
 42
0.856945
 10
-1817.854736
 20
-1529.11145
 10
-1817.854736
 20
-1528.61145
 42
1.0
 10
-1817.854736
 20
-1513.61145
 42
1.0
 10
-1817.854736
 20
-1528.61145
 10
-1817.854736
 20
-1529.11145
 42
0.871902
 10
-1815.695313
 20
-1513.408447
 10
-1815.900391
 20
-1513.009155
 10
-1815.678711
 20
-1512.598389
 10
-1813.945557
 20
-1511.557129
 10
-1814.100098
 20
-1510.999878
  0
LWPOLYLINE
  5
A2
100
AcDbEntity
  8
LAYER22
370
    18
390
0
  6
Continuous
 62
     1
100
AcDbPolyline
 90
        4
 70
     1
 10
-1866.0
 20
-1515.0
 10
-1866.0
 20
-1512.0
 10
-1836.0
 20
-1512.0
 10
-1836.0
 20
-1515.0
  0
LWPOLYLINE
  5
A3
100
AcDbEntity
  8
LAYER22
370
    18
390
0
  6
Continuous
 62
     1
100
AcDbPolyline
 90
        8
 70
     1
 10
-1860.0
 20
-1525.799927
 10
-1859.199951
 20
-1525.0
 10
-1842.800049
 20
-1525.0
 10
-1842.0
 20
-1525.799927
 10
-1842.0
 20
-1536.199951
 10
-1842.800049
 20
-1537.0
 10
-1859.199951
 20
-1537.0
 10
-1860.0
 20
-1536.199951
  0
LWPOLYLINE
  5
A4
100
AcDbEntity
  8
LAYER22
370
    18
390
0
  6
Continuous
 62
     1
100
AcDbPolyline
 90
        4
 70
     1
 10
-1859.0
 20
-1525.0
 10
-1859.0
 20
-1515.0
 10
-1843.0
 20
-1515.0
 10
-1843.0
 20
-1525.0
  0
LWPOLYLINE
  5
A5
100
AcDbEntity
  8
LAYER22
370
    18
390
0
  6
Continuous
 62
     1
100
AcDbPolyline
 90
        8
 70
     1
 10
-1844.0
 20
-1537.0
 10
-1844.0
 20
-1538.0
 10
-1845.0
 20
-1538.0
 10
-1845.0
 20
-1540.0
 10
-1857.0
 20
-1540.0
 10
-1857.0
 20
-1538.0
 10
-1858.0
 20
-1538.0
 10
-1858.0
 20
-1537.0
  0
LWPOLYLINE
  5
A6
100
AcDbEntity
  8
LAYER22
370
    25
390
0
  6
Continuous
 62
     2
100
AcDbPolyline
 90
       12
 70
     1
 10
-1863.5
 20
-1554.0
 10
-1863.5
 20
-1529.0
 10
-1861.0
 20
-1529.0
 42
-0.414214
 10
-1860.5
 20
-1529.5
 10
-1860.5
 20
-1548.0
 42
0.414214
 10
-1857.5
 20
-1551.0
 10
-1844.5
 20
-1551.0
 42
0.414214
 10
-1841.5
 20
-1548.0
 10
-1841.5
 20
-1529.5
 42
-0.414214
 10
-1841.0
 20
-1529.0
 10
-1838.5
 20
-1529.0
 10
-1838.5
 20
-1554.0
  0
LWPOLYLINE
  5
A7
100
AcDbEntity
  8
LAYER22
370
    18
390
0
  6
Continuous
 62
     1
100
AcDbPolyline
 90
        2
 70
     0
 10
-1857.0
 20
-1538.0
 10
-1845.0
 20
-1538.0
  0
LWPOLYLINE
  5
A8
100
AcDbEntity
  8
LAYER22
370
    25
390
0
  6
Continuous
 62
     2
100
AcDbPolyline
 90
        4
 70
     1
 10
-1822.0
 20
1068.399902
 10
-1809.5
 20
1068.399902
 10
-1809.5
 20
-1509.5
 10
-1822.0
 20
-1509.5
  0
LWPOLYLINE
  5
A9
100
AcDbEntity
  8
LAYER22
370
    25
390
0
  6
Continuous
 62
     2
100
AcDbPolyline
 90
        4
 70
     1
 10
-1880.0
 20
1068.399902
 10
-1892.5
 20
1068.399902
 10
-1892.5
 20
-1509.5
 10
-1880.0
 20
-1509.5
  0
LWPOLYLINE
  5
AA
100
AcDbEntity
  8
LAYER22
370
    25
390
0
  6
Continuous
 62
     2
100
AcDbPolyline
 90
       16
 70
     1
 10
-1430.0
 20
1170.5
 10
-1429.5
 20
1171.0
 10
-1334.5
 20
1171.0
 10
-1334.0
 20
1170.5
 10
-1334.0
 20
1106.5
 10
-1334.5
 20
1106.0
 10
-1336.5
 20
1106.0
 10
-1337.0
 20
1106.5
 10
-1337.0
 20
1165.0
 42
0.414214
 10
-1340.0
 20
1168.0
 10
-1424.0
 20
1168.0
 42
0.414214
 10
-1427.0
 20
1165.0
 10
-1427.0
 20
1106.5
 10
-1427.5
 20
1106.0
 10
-1429.5
 20
1106.0
 10
-1430.0
 20
1106.5
  0
LWPOLYLINE
  5
AB
100
AcDbEntity
  8
LAYER22
370
    25
390
0
  6
Continuous
 62
     2
100
AcDbPolyline
 90
       30
 70
     0
 10
-1382.0
 20
1124.0
 10
-1367.5
 20
1124.0
 10
-1367.0
 20
1123.5
 10
-1367.0
 20
1091.0
 42
0.414214
 10
-1364.0
 20
1088.0
 10
-1359.623779
 20
1088.0
 10
-1357.623779
 20
1090.009277
 10
-1348.950195
 20
1090.009277
 10
-1346.950195
 20
1088.0
 10
-1337.0
 20
1088.0
 42
0.414214
 10
-1334.0
 20
1091.0
 10
-1334.0
 20
1150.5
 10
-1333.5
 20
1151.0
 10
-1332.5
 20
1151.0
 10
-1332.0
 20
1150.5
 10
-1332.0
 20
1086.5
 10
-1332.5
 20
1086.0
 10
-1351.250488
 20
1086.0
 10
-1350.995361
 20
1086.430664
 10
-1349.29541
 20
1087.452026
 10
-1349.450195
 20
1088.009277
 10
-1357.050049
 20
1088.009277
 10
-1357.20459
 20
1087.452026
 10
-1355.504639
 20
1086.430664
 10
-1355.249512
 20
1086.0
 10
-1368.5
 20
1086.0
 10
-1369.0
 20
1086.5
 10
-1369.0
 20
1119.0
 42
0.414214
 10
-1372.0
 20
1122.0
 10
-1382.0
 20
1122.0
  0
LWPOLYLINE
  5
AC
100
AcDbEntity
  8
LAYER22
370
    25
390
0
  6
Continuous
 62
     2
100
AcDbPolyline
 90
       30
 70
     0
 10
-1382.0
 20
1124.0
 10
-1396.5
 20
1124.0
 10
-1397.0
 20
1123.5
 10
-1397.0
 20
1091.0
 42
-0.414214
 10
-1400.0
 20
1088.0
 10
-1404.376221
 20
1088.0
 10
-1406.376221
 20
1090.009277
 10
-1415.049805
 20
1090.009277
 10
-1417.049805
 20
1088.0
 10
-1427.0
 20
1088.0
 42
-0.414214
 10
-1430.0
 20
1091.0
 10
-1430.0
 20
1150.5
 10
-1430.5
 20
1151.0
 10
-1431.5
 20
1151.0
 10
-1432.0
 20
1150.5
 10
-1432.0
 20
1086.5
 10
-1431.5
 20
1086.0
 10
-1412.749512
 20
1086.0
 10
-1413.004639
 20
1086.430664
 10
-1414.70459
 20
1087.452026
 10
-1414.549805
 20
1088.009277
 10
-1406.949951
 20
1088.009277
 10
-1406.79541
 20
1087.452026
 10
-1408.495361
 20
1086.430664
 10
-1408.750488
 20
1086.0
 10
-1395.5
 20
1086.0
 10
-1395.0
 20
1086.5
 10
-1395.0
 20
1119.0
 42
-0.414214
 10
-1392.0
 20
1122.0
 10
-1382.0
 20
1122.0
  0
LWPOLYLINE
  5
AD
100
AcDbEntity
  8
LAYER22
370
    18
390
0
  6
Continuous
 62
     1
100
AcDbPolyline
 90
        4
 70
     1
 10
-1394.488281
 20
1084.897705
 10
-1394.488281
 20
1109.897705
 10
-1369.488281
 20
1109.897705
 10
-1369.488281
 20
1084.897705
  0
LWPOLYLINE
  5
AE
100
AcDbEntity
  8
LAYER22
370
    18
390
0
  6
Continuous
 62
     1
100
AcDbPolyline
 90
        4
 70
     1
 10
-1374.442139
 20
1084.897705
 10
-1374.442139
 20
1068.499878
 10
-1389.442139
 20
1068.499878
 10
-1389.442139
 20
1084.897705
  0
LWPOLYLINE
  5
AF
100
AcDbEntity
  8
LAYER22
370
    25
390
0
  6
Continuous
 62
     2
100
AcDbPolyline
 90
       16
 70
     1
 10
-1410.75
 20
1088.009277
 10
-1406.950195
 20
1088.009277
 10
-1406.79541
 20
1087.452026
 10
-1408.528564
 20
1086.410767
 10
-1408.750488
 20
1086.0
 10
-1408.373535
 20
1085.522339
 42
-0.856945
 10
-1410.79541
 20
1069.897705
 10
-1410.79541
 20
1070.397705
 42
1.0
 10
-1410.79541
 20
1085.397705
 42
1.0
 10
-1410.79541
 20
1070.397705
 10
-1410.79541
 20
1069.897705
 42
-0.871902
 10
-1412.95459
 20
1085.60083
 10
-1412.749512
 20
1086.0
 10
-1412.971436
 20
1086.410767
 10
-1414.70459
 20
1087.452026
 10
-1414.550049
 20
1088.009277
  0
LWPOLYLINE
  5
B0
100
AcDbEntity
  8
LAYER22
370
    25
390
0
  6
Continuous
 62
     2
100
AcDbPolyline
 90
       16
 70
     1
 10
-1353.323975
 20
1088.009277
 10
-1349.523926
 20
1088.009277
 10
-1349.369385
 20
1087.452026
 10
-1351.102539
 20
1086.410767
 10
-1351.324219
 20
1086.0
 10
-1350.94751
 20
1085.522339
 42
-0.856945
 10
-1353.369141
 20
1069.897705
 10
-1353.369141
 20
1070.397705
 42
1.0
 10
-1353.369141
 20
1085.397705
 42
1.0
 10
-1353.369141
 20
1070.397705
 10
-1353.369141
 20
1069.897705
 42
-0.871902
 10
-1355.528564
 20
1085.600708
 10
-1355.323486
 20
1086.0
 10
-1355.54541
 20
1086.410767
 10
-1357.27832
 20
1087.452026
 10
-1357.124023
 20
1088.009277
  0
LWPOLYLINE
  5
B1
100
AcDbEntity
  8
LAYER22
370
    25
390
0
  6
Continuous
 62
     2
100
AcDbPolyline
 90
       30
 70
     0
 10
-1381.941406
 20
1053.499512
 10
-1354.441406
 20
1053.499512
 10
-1354.441406
 20
1067.499512
 42
0.414214
 10
-1355.441406
 20
1068.499512
 10
-1358.691406
 20
1068.499512
 42
-0.647625
 10
-1359.064575
 20
1069.332886
 42
-0.213431
 10
-1357.573975
 20
1069.999512
 10
-1351.332275
 20
1069.99939
 42
-0.744972
 10
-1351.062988
 20
1069.098389
 10
-1352.795898
 20
1068.056641
 10
-1352.641602
 20
1067.499512
 10
-1345.041504
 20
1067.49939
 10
-1344.886963
 20
1068.056641
 10
-1346.586914
 20
1069.078003
 42
-0.776162
 10
-1346.350586
 20
1069.999878
 10
-1342.741455
 20
1069.999512
 42
-0.414214
 10
-1338.741455
 20
1065.999512
 10
-1338.741455
 20
1062.615479
 42
-0.217187
 10
-1339.427856
 20
1061.110107
 42
-0.629276
 10
-1340.241455
 20
1061.498535
 10
-1340.241455
 20
1065.999512
 42
0.378639
 10
-1342.434814
 20
1068.480591
 42
0.358301
 10
-1343.241455
 20
1067.499512
 42
-0.414214
 10
-1344.741455
 20
1065.999512
 10
-1352.941406
 20
1065.999512
 10
-1352.941406
 20
1046.999512
 10
-1354.441406
 20
1046.999512
 10
-1354.441406
 20
1050.499512
 42
0.414214
 10
-1355.441406
 20
1051.499512
 10
-1381.941406
 20
1051.499512
  0
LWPOLYLINE
  5
B2
100
AcDbEntity
  8
LAYER22
370
    25
390
0
  6
Continuous
 62
     2
100
AcDbPolyline
 90
       30
 70
     0
 10
-1381.941406
 20
1053.499512
 10
-1409.441406
 20
1053.499512
 10
-1409.441406
 20
1067.499512
 42
-0.414214
 10
-1408.441406
 20
1068.499512
 10
-1405.191406
 20
1068.499512
 42
0.647625
 10
-1404.818237
 20
1069.332886
 42
0.213431
 10
-1406.308838
 20
1069.999512
 10
-1412.550537
 20
1069.99939
 42
0.744972
 10
-1412.819824
 20
1069.098389
 10
-1411.086914
 20
1068.056641
 10
-1411.241211
 20
1067.499512
 10
-1418.841309
 20
1067.49939
 10
-1418.99585
 20
1068.056641
 10
-1417.295898
 20
1069.078003
 42
0.776162
 10
-1417.532227
 20
1069.999878
 10
-1421.141357
 20
1069.999512
 42
0.414214
 10
-1425.141357
 20
1065.999512
 10
-1425.141357
 20
1062.615479
 42
0.217187
 10
-1424.454956
 20
1061.110107
 42
0.629276
 10
-1423.641357
 20
1061.498535
 10
-1423.641357
 20
1065.999512
 42
-0.378639
 10
-1421.447998
 20
1068.480591
 42
-0.358301
 10
-1420.641357
 20
1067.499512
 42
0.414214
 10
-1419.141357
 20
1065.999512
 10
-1410.941406
 20
1065.999512
 10
-1410.941406
 20
1046.999512
 10
-1409.441406
 20
1046.999512
 10
-1409.441406
 20
1050.499512
 42
-0.414214
 10
-1408.441406
 20
1051.499512
 10
-1381.941406
 20
1051.499512
  0
LWPOLYLINE
  5
B3
100
AcDbEntity
  8
LAYER22
370
    18
390
0
  6
Continuous
 62
     1
100
AcDbPolyline
 90
        6
 70
     1
 10
-1409.441406
 20
1053.499512
 10
-1409.441406
 20
1067.499512
 42
-0.414214
 10
-1408.441406
 20
1068.499512
 10
-1355.441406
 20
1068.499512
 42
-0.414214
 10
-1354.441406
 20
1067.499512
 10
-1354.441406
 20
1053.499512
  0
LWPOLYLINE
  5
B4
100
AcDbEntity
  8
LAYER22
370
    25
390
0
  6
Continuous
 62
     2
100
AcDbPolyline
 90
       30
 70
     0
 10
-1381.941406
 20
-1487.000244
 10
-1354.441406
 20
-1487.000244
 10
-1354.441406
 20
-1501.000244
 42
-0.414214
 10
-1355.441406
 20
-1502.000244
 10
-1358.691406
 20
-1502.000244
 42
0.647625
 10
-1359.064575
 20
-1502.833618
 42
0.213431
 10
-1357.573975
 20
-1503.500244
 10
-1351.332275
 20
-1503.500122
 42
0.744972
 10
-1351.062988
 20
-1502.599121
 10
-1352.795898
 20
-1501.557373
 10
-1352.641602
 20
-1501.000244
 10
-1345.041504
 20
-1501.000122
 10
-1344.886963
 20
-1501.557373
 10
-1346.586914
 20
-1502.578735
 42
0.776162
 10
-1346.350586
 20
-1503.50061
 10
-1342.741455
 20
-1503.500244
 42
0.414214
 10
-1338.741455
 20
-1499.500244
 10
-1338.741455
 20
-1496.116211
 42
0.217187
 10
-1339.427856
 20
-1494.61084
 42
0.629276
 10
-1340.241455
 20
-1494.999268
 10
-1340.241455
 20
-1499.500244
 42
-0.378639
 10
-1342.434814
 20
-1501.981323
 42
-0.358301
 10
-1343.241455
 20
-1501.000244
 42
0.414214
 10
-1344.741455
 20
-1499.500244
 10
-1352.941406
 20
-1499.500244
 10
-1352.941406
 20
-1480.500244
 10
-1354.441406
 20
-1480.500244
 10
-1354.441406
 20
-1484.000244
 42
-0.414214
 10
-1355.441406
 20
-1485.000244
 10
-1381.941406
 20
-1485.000244
  0
LWPOLYLINE
  5
B5
100
AcDbEntity
  8
LAYER22
370
    25
390
0
  6
Continuous
 62
     2
100
AcDbPolyline
 90
       30
 70
     0
 10
-1381.941406
 20
-1487.000244
 10
-1409.441406
 20
-1487.000244
 10
-1409.441406
 20
-1501.000244
 42
0.414214
 10
-1408.441406
 20
-1502.000244
 10
-1405.191406
 20
-1502.000244
 42
-0.647625
 10
-1404.818237
 20
-1502.833618
 42
-0.213431
 10
-1406.308838
 20
-1503.500244
 10
-1412.550537
 20
-1503.500122
 42
-0.744972
 10
-1412.819824
 20
-1502.599121
 10
-1411.086914
 20
-1501.557373
 10
-1411.241211
 20
-1501.000244
 10
-1418.841309
 20
-1501.000122
 10
-1418.99585
 20
-1501.557373
 10
-1417.295898
 20
-1502.578735
 42
-0.776162
 10
-1417.532227
 20
-1503.50061
 10
-1421.141357
 20
-1503.500244
 42
-0.414214
 10
-1425.141357
 20
-1499.500244
 10
-1425.141357
 20
-1496.116211
 42
-0.217187
 10
-1424.454956
 20
-1494.61084
 42
-0.629276
 10
-1423.641357
 20
-1494.999268
 10
-1423.641357
 20
-1499.500244
 42
0.378639
 10
-1421.447998
 20
-1501.981323
 42
0.358301
 10
-1420.641357
 20
-1501.000244
 42
-0.414214
 10
-1419.141357
 20
-1499.500244
 10
-1410.941406
 20
-1499.500244
 10
-1410.941406
 20
-1480.500244
 10
-1409.441406
 20
-1480.500244
 10
-1409.441406
 20
-1484.000244
 42
0.414214
 10
-1408.441406
 20
-1485.000244
 10
-1381.941406
 20
-1485.000244
  0
LWPOLYLINE
  5
B6
100
AcDbEntity
  8
LAYER22
370
    18
390
0
  6
Continuous
 62
     1
100
AcDbPolyline
 90
        6
 70
     1
 10
-1409.441406
 20
-1487.000244
 10
-1409.441406
 20
-1501.000244
 42
0.414214
 10
-1408.441406
 20
-1502.000244
 10
-1355.441406
 20
-1502.000244
 42
0.414214
 10
-1354.441406
 20
-1501.000244
 10
-1354.441406
 20
-1487.000244
  0
LWPOLYLINE
  5
B7
100
AcDbEntity
  8
LAYER22
370
    25
390
0
  6
Continuous
 62
     2
100
AcDbPolyline
 90
       16
 70
     1
 10
-1415.041504
 20
-1501.000122
 10
-1411.241211
 20
-1501.000122
 10
-1411.086914
 20
-1501.557373
 10
-1412.819824
 20
-1502.598633
 10
-1413.041504
 20
-1503.009399
 10
-1412.665039
 20
-1503.487061
 42
-0.856945
 10
-1415.08667
 20
-1519.111694
 10
-1415.08667
 20
-1518.611694
 42
1.0
 10
-1415.08667
 20
-1503.611694
 42
1.0
 10
-1415.08667
 20
-1518.611694
 10
-1415.08667
 20
-1519.111694
 42
-0.871902
 10
-1417.246094
 20
-1503.408691
 10
-1417.041016
 20
-1503.009399
 10
-1417.262695
 20
-1502.598633
 10
-1418.99585
 20
-1501.557373
 10
-1418.841309
 20
-1501.000122
  0
LWPOLYLINE
  5
B8
100
AcDbEntity
  8
LAYER22
370
    25
390
0
  6
Continuous
 62
     2
100
AcDbPolyline
 90
       16
 70
     1
 10
-1348.841309
 20
-1501.000122
 10
-1352.641602
 20
-1501.000122
 10
-1352.795898
 20
-1501.557373
 10
-1351.062988
 20
-1502.598633
 10
-1350.841309
 20
-1503.009399
 10
-1351.217773
 20
-1503.487061
 42
0.856945
 10
-1348.796143
 20
-1519.111694
 10
-1348.796143
 20
-1518.611694
 42
1.0
 10
-1348.796143
 20
-1503.611694
 42
1.0
 10
-1348.796143
 20
-1518.611694
 10
-1348.796143
 20
-1519.111694
 42
0.871902
 10
-1346.636719
 20
-1503.408691
 10
-1346.841797
 20
-1503.009399
 10
-1346.620117
 20
-1502.598633
 10
-1344.886963
 20
-1501.557373
 10
-1345.041504
 20
-1501.000122
  0
LWPOLYLINE
  5
B9
100
AcDbEntity
  8
LAYER22
370
    25
390
0
  6
Continuous
 62
     2
100
AcDbPolyline
 90
        4
 70
     1
 10
-1352.941406
 20
1065.999512
 10
-1340.441406
 20
1065.999512
 10
-1340.441406
 20
-1499.500488
 10
-1352.941406
 20
-1499.500488
  0
LWPOLYLINE
  5
BA
100
AcDbEntity
  8
LAYER22
370
    25
390
0
  6
Continuous
 62
     2
100
AcDbPolyline
 90
        4
 70
     1
 10
-1410.941406
 20
1065.999512
 10
-1423.441406
 20
1065.999512
 10
-1423.441406
 20
-1499.500488
 10
-1410.941406
 20
-1499.500488
  0
LWPOLYLINE
  5
BB
100
AcDbEntity
  8
LAYER22
370
    25
390
0
  6
Continuous
 62
     2
100
AcDbPolyline
 90
       18
 70
     0
 10
-1381.941406
 20
-1521.0
 10
-1376.941406
 20
-1521.0
 10
-1376.941406
 20
-1526.5
 10
-1368.941406
 20
-1526.5
 10
-1368.941406
 20
-1521.0
 10
-1353.191406
 20
-1521.0
 42
-0.123106
 10
-1342.603027
 20
-1523.647095
 42
-1.000023
 10
-1343.779663
 20
-1525.852905
 10
-1343.503906
 20
-1526.0
 42
0.111215
 10
-1351.941406
 20
-1523.536621
 10
-1351.941406
 20
-1529.0
 10
-1354.441406
 20
-1529.0
 10
-1354.441406
 20
-1523.5
 10
-1366.441406
 20
-1523.5
 10
-1366.441406
 20
-1529.0
 10
-1379.441406
 20
-1529.0
 10
-1379.441406
 20
-1523.5
 10
-1381.941406
 20
-1523.5
  0
LWPOLYLINE
  5
BC
100
AcDbEntity
  8
LAYER22
370
    25
390
0
  6
Continuous
 62
     2
100
AcDbPolyline
 90
       18
 70
     0
 10
-1381.941406
 20
-1521.0
 10
-1386.941406
 20
-1521.0
 10
-1386.941406
 20
-1526.5
 10
-1394.941406
 20
-1526.5
 10
-1394.941406
 20
-1521.0
 10
-1410.691406
 20
-1521.0
 42
0.123106
 10
-1421.279785
 20
-1523.647095
 42
1.000023
 10
-1420.103149
 20
-1525.852905
 10
-1420.378906
 20
-1526.0
 42
-0.111215
 10
-1411.941406
 20
-1523.536621
 10
-1411.941406
 20
-1529.0
 10
-1409.441406
 20
-1529.0
 10
-1409.441406
 20
-1523.5
 10
-1397.441406
 20
-1523.5
 10
-1397.441406
 20
-1529.0
 10
-1384.441406
 20
-1529.0
 10
-1384.441406
 20
-1523.5
 10
-1381.941406
 20
-1523.5
  0
LWPOLYLINE
  5
BD
100
AcDbEntity
  8
LAYER22
370
    18
390
0
  6
Continuous
 62
     1
100
AcDbPolyline
 90
        4
 70
     0
 10
-1361.941406
 20
-1502.000122
 10
-1361.941406
 20
-1512.000122
 10
-1401.941406
 20
-1512.000122
 10
-1401.941406
 20
-1502.000122
  0
LWPOLYLINE
  5
BE
100
AcDbEntity
  8
LAYER22
370
    18
390
0
  6
Continuous
 62
     1
100
AcDbPolyline
 90
        6
 70
     0
 10
-1373.941406
 20
-1512.000122
 10
-1373.941406
 20
-1519.000122
 10
-1374.941406
 20
-1522.000122
 10
-1376.441406
 20
-1522.000122
 10
-1376.941406
 20
-1519.000122
 10
-1376.941406
 20
-1512.000122
  0
LWPOLYLINE
  5
BF
100
AcDbEntity
  8
LAYER22
370
    18
390
0
  6
Continuous
 62
     1
100
AcDbPolyline
 90
        6
 70
     0
 10
-1386.941406
 20
-1512.000122
 10
-1386.941406
 20
-1519.000122
 10
-1387.441406
 20
-1522.000122
 10
-1388.941406
 20
-1522.000122
 10
-1389.941406
 20
-1519.000122
 10
-1389.941406
 20
-1512.000122
  0
LWPOLYLINE
  5
C0
100
AcDbEntity
  8
LAYER22
370
    18
390
0
  6
Continuous
 62
     1
100
AcDbPolyline
 90
        2
 70
     0
 10
-1386.941406
 20
-1519.000122
 10
-1376.941406
 20
-1519.000122
  0
LWPOLYLINE
  5
C1
100
AcDbEntity
  8
LAYER22
370
    25
390
0
  6
Continuous
 62
     2
100
AcDbPolyline
 90
       38
 70
     0
 10
-873.734375
 20
1171.0
 10
-815.734375
 20
1171.0
 10
-815.234375
 20
1170.5
 10
-815.234375
 20
1131.5
 10
-815.734375
 20
1131.0
 10
-817.234375
 20
1131.0
 10
-817.734375
 20
1131.5
 10
-817.734375
 20
1165.0
 42
0.414214
 10
-819.734375
 20
1167.0
 10
-832.734375
 20
1167.0
 42
0.414214
 10
-834.734375
 20
1165.0
 10
-834.734375
 20
1121.5
 10
-835.234375
 20
1121.0
 10
-864.234375
 20
1121.0
 10
-864.734375
 20
1121.5
 10
-864.734375
 20
1128.0
 10
-864.234375
 20
1128.5
 10
-862.734375
 20
1128.5
 10
-862.234375
 20
1128.0
 10
-862.234375
 20
1126.5
 42
0.414214
 10
-860.234375
 20
1124.5
 10
-843.234375
 20
1124.5
 42
0.414214
 10
-841.234375
 20
1126.5
 10
-841.234375
 20
1128.5
 10
-838.234375
 20
1131.5
 10
-838.234375
 20
1158.0
 10
-841.234375
 20
1161.0
 10
-841.234375
 20
1165.0
 42
0.414214
 10
-843.234375
 20
1167.0
 10
-860.234375
 20
1167.0
 42
0.414214
 10
-862.234375
 20
1165.0
 10
-862.234375
 20
1161.5
 10
-862.734375
 20
1161.0
 10
-864.234375
 20
1161.0
 10
-864.734375
 20
1161.5
 10
-864.734375
 20
1166.5
 10
-865.234375
 20
1167.0
 10
-873.734375
 20
1167.0
  0
LWPOLYLINE
  5
C2
100
AcDbEntity
  8
LAYER22
370
    25
390
0
  6
Continuous
 62
     2
100
AcDbPolyline
 90
       38
 70
     0
 10
-873.734375
 20
1171.0
 10
-931.734375
 20
1171.0
 10
-932.234375
 20
1170.5
 10
-932.234375
 20
1131.5
 10
-931.734375
 20
1131.0
 10
-930.234375
 20
1131.0
 10
-929.734375
 20
1131.5
 10
-929.734375
 20
1165.0
 42
-0.414214
 10
-927.734375
 20
1167.0
 10
-914.734375
 20
1167.0
 42
-0.414214
 10
-912.734375
 20
1165.0
 10
-912.734375
 20
1121.5
 10
-912.234375
 20
1121.0
 10
-883.234375
 20
1121.0
 10
-882.734375
 20
1121.5
 10
-882.734375
 20
1128.0
 10
-883.234375
 20
1128.5
 10
-884.734375
 20
1128.5
 10
-885.234375
 20
1128.0
 10
-885.234375
 20
1126.5
 42
-0.414214
 10
-887.234375
 20
1124.5
 10
-904.234375
 20
1124.5
 42
-0.414214
 10
-906.234375
 20
1126.5
 10
-906.234375
 20
1128.5
 10
-909.234375
 20
1131.5
 10
-909.234375
 20
1158.0
 10
-906.234375
 20
1161.0
 10
-906.234375
 20
1165.0
 42
-0.414214
 10
-904.234375
 20
1167.0
 10
-887.234375
 20
1167.0
 42
-0.414214
 10
-885.234375
 20
1165.0
 10
-885.234375
 20
1161.5
 10
-884.734375
 20
1161.0
 10
-883.234375
 20
1161.0
 10
-882.734375
 20
1161.5
 10
-882.734375
 20
1166.5
 10
-882.234375
 20
1167.0
 10
-873.734375
 20
1167.0
  0
LWPOLYLINE
  5
C3
100
AcDbEntity
  8
LAYER22
370
    18
390
0
  6
Continuous
 62
     1
100
AcDbPolyline
 90
        8
 70
     1
 10
-895.734375
 20
1153.899902
 10
-895.134766
 20
1154.5
 10
-887.333984
 20
1154.5
 10
-886.734375
 20
1153.899902
 10
-886.734375
 20
1125.100098
 10
-887.333984
 20
1124.5
 10
-895.134766
 20
1124.5
 10
-895.734375
 20
1125.100098
  0
LWPOLYLINE
  5
C4
100
AcDbEntity
  8
LAYER22
370
    18
390
0
  6
Continuous
 62
     1
100
AcDbPolyline
 90
        8
 70
     1
 10
-895.734375
 20
1131.5
 10
-897.234375
 20
1131.5
 10
-897.234375
 20
1134.5
 10
-898.234375
 20
1134.5
 10
-898.234375
 20
1144.5
 10
-897.234375
 20
1144.5
 10
-897.234375
 20
1147.5
 10
-895.734375
 20
1147.5
  0
LWPOLYLINE
  5
C5
100
AcDbEntity
  8
LAYER22
370
    18
390
0
  6
Continuous
 62
     1
100
AcDbPolyline
 90
        4
 70
     1
 10
-886.734375
 20
1147.0
 10
-883.734375
 20
1147.0
 10
-883.734375
 20
1132.0
 10
-886.734375
 20
1132.0
  0
LWPOLYLINE
  5
C6
100
AcDbEntity
  8
LAYER22
370
    18
390
0
  6
Continuous
 62
     1
100
AcDbPolyline
 90
        4
 70
     1
 10
-883.734375
 20
1129.5
 10
-883.734375
 20
1149.5
 10
-863.734375
 20
1149.5
 10
-863.734375
 20
1129.5
  0
LWPOLYLINE
  5
C7
100
AcDbEntity
  8
LAYER22
370
    18
390
0
  6
Continuous
 62
     1
100
AcDbPolyline
 90
        6
 70
     1
 10
-884.285156
 20
1151.453125
 10
-884.285156
 20
1157.452637
 10
-881.646484
 20
1158.953125
 10
-865.822266
 20
1158.953125
 10
-863.183594
 20
1157.453125
 10
-863.183594
 20
1151.453125
  0
LWPOLYLINE
  5
C8
100
AcDbEntity
  8
LAYER22
370
    18
390
0
  6
Continuous
 62
     1
100
AcDbPolyline
 90
        5
 70
     0
 10
-881.646484
 20
1158.953125
 10
-879.009766
 20
1157.453125
 10
-873.734375
 20
1158.953125
 10
-868.458984
 20
1157.453125
 10
-865.822266
 20
1158.953125
  0
LWPOLYLINE
  5
C9
100
AcDbEntity
  8
LAYER22
370
    18
390
0
  6
Continuous
 62
     1
100
AcDbPolyline
 90
        2
 70
     0
 10
-879.009766
 20
1157.453125
 10
-879.009766
 20
1151.453125
  0
LWPOLYLINE
  5
CA
100
AcDbEntity
  8
LAYER22
370
    18
390
0
  6
Continuous
 62
     1
100
AcDbPolyline
 90
        2
 70
     0
 10
-868.458984
 20
1157.453125
 10
-868.458984
 20
1151.453125
  0
LWPOLYLINE
  5
CB
100
AcDbEntity
  8
LAYER22
370
    18
390
0
  6
Continuous
 62
     1
100
AcDbPolyline
 90
        6
 70
     1
 10
-885.158203
 20
1149.5
 10
-885.371094
 20
1150.845703
 10
-879.833984
 20
1151.453125
 10
-867.634766
 20
1151.453125
 10
-862.097656
 20
1150.845703
 10
-862.310547
 20
1149.5
  0
LWPOLYLINE
  5
CC
100
AcDbEntity
  8
LAYER22
370
    18
390
0
  6
Continuous
 62
     1
100
AcDbPolyline
 90
        8
 70
     1
 10
-881.333984
 20
1118.5
 10
-881.734375
 20
1118.899902
 10
-881.734375
 20
1128.100098
 10
-881.333984
 20
1128.5
 10
-866.134766
 20
1128.5
 10
-865.734375
 20
1128.100098
 10
-865.734375
 20
1118.899902
 10
-866.134766
 20
1118.5
  0
LWPOLYLINE
  5
CD
100
AcDbEntity
  8
LAYER22
370
    18
390
0
  6
Continuous
 62
     1
100
AcDbPolyline
 90
        4
 70
     1
 10
-879.734375
 20
1129.5
 10
-867.734375
 20
1129.5
 10
-867.734375
 20
1128.5
 10
-879.734375
 20
1128.5
  0
LWPOLYLINE
  5
CE
100
AcDbEntity
  8
LAYER22
370
    18
390
0
  6
Continuous
 62
     1
100
AcDbPolyline
 90
        4
 70
     1
 10
-880.734375
 20
1118.5
 10
-866.734375
 20
1118.5
 10
-866.734375
 20
1117.5
 10
-880.734375
 20
1117.5
  0
LWPOLYLINE
  5
CF
100
AcDbEntity
  8
LAYER22
370
    18
390
0
  6
Continuous
 62
     1
100
AcDbPolyline
 90
        4
 70
     1
 10
-879.734375
 20
1117.5
 10
-867.734375
 20
1117.5
 10
-867.734375
 20
1115.5
 10
-879.734375
 20
1115.5
  0
LWPOLYLINE
  5
D0
100
AcDbEntity
  8
LAYER22
370
    18
390
0
  6
Continuous
 62
     1
100
AcDbPolyline
 90
        4
 70
     1
 10
-868.734375
 20
1115.5
 10
-868.734375
 20
1070.899902
 10
-878.734375
 20
1070.899902
 10
-878.734375
 20
1115.5
  0
LWPOLYLINE
  5
D1
100
AcDbEntity
  8
LAYER22
370
    18
390
0
  6
Continuous
 62
     1
100
AcDbPolyline
 90
        8
 70
     1
 10
-851.734375
 20
1153.899902
 10
-852.333984
 20
1154.5
 10
-860.134766
 20
1154.5
 10
-860.734375
 20
1153.899902
 10
-860.734375
 20
1125.100098
 10
-860.134766
 20
1124.5
 10
-852.333984
 20
1124.5
 10
-851.734375
 20
1125.100098
  0
LWPOLYLINE
  5
D2
100
AcDbEntity
  8
LAYER22
370
    18
390
0
  6
Continuous
 62
     1
100
AcDbPolyline
 90
        8
 70
     1
 10
-851.734375
 20
1131.5
 10
-850.234375
 20
1131.5
 10
-850.234375
 20
1134.5
 10
-849.234375
 20
1134.5
 10
-849.234375
 20
1144.5
 10
-850.234375
 20
1144.5
 10
-850.234375
 20
1147.5
 10
-851.734375
 20
1147.5
  0
LWPOLYLINE
  5
D3
100
AcDbEntity
  8
LAYER22
370
    18
390
0
  6
Continuous
 62
     1
100
AcDbPolyline
 90
        4
 70
     1
 10
-860.734375
 20
1147.0
 10
-863.734375
 20
1147.0
 10
-863.734375
 20
1132.0
 10
-860.734375
 20
1132.0
  0
LWPOLYLINE
  5
D4
100
AcDbEntity
  8
LAYER22
370
    25
390
0
  6
Continuous
 62
     2
100
AcDbPolyline
 90
        9
 70
     1
 10
-833.734375
 20
1149.0
 10
-817.734375
 20
1149.0
 10
-817.734375
 20
1096.066406
 10
-818.734375
 20
1096.0
 42
-0.414214
 10
-825.734375
 20
1089.0
 10
-825.734375
 20
1088.0
 10
-862.734375
 20
1088.0
 10
-862.734375
 20
1104.0
 10
-833.734375
 20
1104.0
  0
LWPOLYLINE
  5
D5
100
AcDbEntity
  8
LAYER22
370
    25
390
0
  6
Continuous
 62
     2
100
AcDbPolyline
 90
        9
 70
     1
 10
-913.734375
 20
1149.0
 10
-929.734375
 20
1149.0
 10
-929.734375
 20
1096.066406
 10
-928.734375
 20
1096.0
 42
0.414214
 10
-921.734375
 20
1089.0
 10
-921.734375
 20
1088.0
 10
-884.734375
 20
1088.0
 10
-884.734375
 20
1104.0
 10
-913.734375
 20
1104.0
  0
LWPOLYLINE
  5
D6
100
AcDbEntity
  8
LAYER22
370
    25
390
0
  6
Continuous
 62
     2
100
AcDbPolyline
 90
       30
 70
     0
 10
-873.734375
 20
1055.899902
 10
-846.234375
 20
1055.899902
 10
-846.234375
 20
1069.899902
 42
0.414214
 10
-847.234375
 20
1070.899902
 10
-850.484375
 20
1070.899902
 42
-0.647625
 10
-850.857544
 20
1071.733276
 42
-0.213431
 10
-849.366943
 20
1072.399902
 10
-843.125244
 20
1072.39978
 42
-0.744972
 10
-842.855957
 20
1071.498779
 10
-844.588867
 20
1070.457031
 10
-844.43457
 20
1069.899902
 10
-836.834473
 20
1069.89978
 10
-836.679932
 20
1070.457031
 10
-838.379883
 20
1071.478394
 42
-0.776162
 10
-838.143555
 20
1072.400269
 10
-834.534424
 20
1072.399902
 42
-0.414214
 10
-830.534424
 20
1068.399902
 10
-830.534424
 20
1065.015869
 42
-0.217187
 10
-831.220764
 20
1063.510498
 42
-0.629276
 10
-832.034485
 20
1063.898926
 10
-832.034424
 20
1068.399902
 42
0.378639
 10
-834.227783
 20
1070.880981
 42
0.358301
 10
-835.034424
 20
1069.899902
 42
-0.414214
 10
-836.534424
 20
1068.399902
 10
-844.734375
 20
1068.399902
 10
-844.734375
 20
1049.399902
 10
-846.234375
 20
1049.399902
 10
-846.234375
 20
1052.899902
 42
0.414214
 10
-847.234375
 20
1053.899902
 10
-873.734375
 20
1053.899902
  0
LWPOLYLINE
  5
D7
100
AcDbEntity
  8
LAYER22
370
    25
390
0
  6
Continuous
 62
     2
100
AcDbPolyline
 90
       30
 70
     0
 10
-873.734375
 20
1055.899902
 10
-901.234375
 20
1055.899902
 10
-901.234375
 20
1069.899902
 42
-0.414214
 10
-900.234375
 20
1070.899902
 10
-896.984375
 20
1070.899902
 42
0.647625
 10
-896.611206
 20
1071.733276
 42
0.213431
 10
-898.101807
 20
1072.399902
 10
-904.343506
 20
1072.39978
 42
0.744972
 10
-904.612793
 20
1071.498779
 10
-902.879883
 20
1070.457031
 10
-903.03418
 20
1069.899902
 10
-910.634277
 20
1069.89978
 10
-910.788818
 20
1070.457031
 10
-909.088867
 20
1071.478394
 42
0.776162
 10
-909.325195
 20
1072.400269
 10
-912.934326
 20
1072.399902
 42
0.414214
 10
-916.934326
 20
1068.399902
 10
-916.934326
 20
1065.015869
 42
0.217187
 10
-916.247986
 20
1063.510498
 42
0.629276
 10
-915.434265
 20
1063.898926
 10
-915.434326
 20
1068.399902
 42
-0.378639
 10
-913.240967
 20
1070.880981
 42
-0.358301
 10
-912.434326
 20
1069.899902
 42
0.414214
 10
-910.934326
 20
1068.399902
 10
-902.734375
 20
1068.399902
 10
-902.734375
 20
1049.399902
 10
-901.234375
 20
1049.399902
 10
-901.234375
 20
1052.899902
 42
-0.414214
 10
-900.234375
 20
1053.899902
 10
-873.734375
 20
1053.899902
  0
LWPOLYLINE
  5
D8
100
AcDbEntity
  8
LAYER22
370
    18
390
0
  6
Continuous
 62
     1
100
AcDbPolyline
 90
        6
 70
     1
 10
-901.234375
 20
1055.899902
 10
-901.234375
 20
1069.899902
 42
-0.414214
 10
-900.234375
 20
1070.899902
 10
-847.234375
 20
1070.899902
 42
-0.414214
 10
-846.234375
 20
1069.899902
 10
-846.234375
 20
1055.899902
  0
LWPOLYLINE
  5
D9
100
AcDbEntity
  8
LAYER22
370
    25
390
0
  6
Continuous
 62
     2
100
AcDbPolyline
 90
       16
 70
     1
 10
-906.834473
 20
1069.89978
 10
-903.03418
 20
1069.89978
 10
-902.879883
 20
1070.457031
 10
-904.612793
 20
1071.498291
 10
-904.834473
 20
1071.909058
 10
-904.458008
 20
1072.386719
 42
0.856945
 10
-906.879639
 20
1088.011353
 10
-906.879639
 20
1087.511353
 42
1.0
 10
-906.879639
 20
1072.511353
 42
1.0
 10
-906.879639
 20
1087.511353
 10
-906.879639
 20
1088.011353
 42
0.871902
 10
-909.039063
 20
1072.30835
 10
-908.833984
 20
1071.909058
 10
-909.055664
 20
1071.498291
 10
-910.788818
 20
1070.457031
 10
-910.634277
 20
1069.89978
  0
LWPOLYLINE
  5
DA
100
AcDbEntity
  8
LAYER22
370
    25
390
0
  6
Continuous
 62
     2
100
AcDbPolyline
 90
       16
 70
     1
 10
-840.634277
 20
1069.89978
 10
-844.43457
 20
1069.89978
 10
-844.588867
 20
1070.457031
 10
-842.855957
 20
1071.498291
 10
-842.634277
 20
1071.909058
 10
-843.010742
 20
1072.386719
 42
-0.856945
 10
-840.589111
 20
1088.011353
 10
-840.589111
 20
1087.511353
 42
1.0
 10
-840.589111
 20
1072.511353
 42
1.0
 10
-840.589111
 20
1087.511353
 10
-840.589111
 20
1088.011353
 42
-0.871902
 10
-838.429688
 20
1072.30835
 10
-838.634766
 20
1071.909058
 10
-838.413086
 20
1071.498291
 10
-836.679932
 20
1070.457031
 10
-836.834473
 20
1069.89978
  0
LWPOLYLINE
  5
DB
100
AcDbEntity
  8
LAYER22
370
    25
390
0
  6
Continuous
 62
     2
100
AcDbPolyline
 90
       30
 70
     0
 10
-873.734375
 20
-1497.0
 10
-846.234375
 20
-1497.0
 10
-846.234375
 20
-1511.0
 42
-0.414214
 10
-847.234375
 20
-1512.0
 10
-850.484375
 20
-1512.0
 42
0.647625
 10
-850.857544
 20
-1512.833374
 42
0.213431
 10
-849.366943
 20
-1513.5
 10
-843.125244
 20
-1513.499878
 42
0.744972
 10
-842.855957
 20
-1512.598877
 10
-844.588867
 20
-1511.557129
 10
-844.43457
 20
-1511.0
 10
-836.834473
 20
-1510.999878
 10
-836.679932
 20
-1511.557129
 10
-838.379883
 20
-1512.578491
 42
0.776162
 10
-838.143555
 20
-1513.500366
 10
-834.534424
 20
-1513.5
 42
0.414214
 10
-830.534424
 20
-1509.5
 10
-830.534424
 20
-1506.115967
 42
0.217187
 10
-831.220764
 20
-1504.610596
 42
0.629276
 10
-832.034485
 20
-1504.999023
 10
-832.034424
 20
-1509.5
 42
-0.378639
 10
-834.227783
 20
-1511.981079
 42
-0.358301
 10
-835.034424
 20
-1511.0
 42
0.414214
 10
-836.534424
 20
-1509.5
 10
-844.734375
 20
-1509.5
 10
-844.734375
 20
-1490.5
 10
-846.234375
 20
-1490.5
 10
-846.234375
 20
-1494.0
 42
-0.414214
 10
-847.234375
 20
-1495.0
 10
-873.734375
 20
-1495.0
  0
LWPOLYLINE
  5
DC
100
AcDbEntity
  8
LAYER22
370
    25
390
0
  6
Continuous
 62
     2
100
AcDbPolyline
 90
       30
 70
     0
 10
-873.734375
 20
-1497.0
 10
-901.234375
 20
-1497.0
 10
-901.234375
 20
-1511.0
 42
0.414214
 10
-900.234375
 20
-1512.0
 10
-896.984375
 20
-1512.0
 42
-0.647625
 10
-896.611206
 20
-1512.833374
 42
-0.213431
 10
-898.101807
 20
-1513.5
 10
-904.343506
 20
-1513.499878
 42
-0.744972
 10
-904.612793
 20
-1512.598877
 10
-902.879883
 20
-1511.557129
 10
-903.03418
 20
-1511.0
 10
-910.634277
 20
-1510.999878
 10
-910.788818
 20
-1511.557129
 10
-909.088867
 20
-1512.578491
 42
-0.776162
 10
-909.325195
 20
-1513.500366
 10
-912.934326
 20
-1513.5
 42
-0.414214
 10
-916.934326
 20
-1509.5
 10
-916.934326
 20
-1506.115967
 42
-0.217187
 10
-916.247986
 20
-1504.610596
 42
-0.629276
 10
-915.434265
 20
-1504.999023
 10
-915.434326
 20
-1509.5
 42
0.378639
 10
-913.240967
 20
-1511.981079
 42
0.358301
 10
-912.434326
 20
-1511.0
 42
-0.414214
 10
-910.934326
 20
-1509.5
 10
-902.734375
 20
-1509.5
 10
-902.734375
 20
-1490.5
 10
-901.234375
 20
-1490.5
 10
-901.234375
 20
-1494.0
 42
0.414214
 10
-900.234375
 20
-1495.0
 10
-873.734375
 20
-1495.0
  0
LWPOLYLINE
  5
DD
100
AcDbEntity
  8
LAYER22
370
    18
390
0
  6
Continuous
 62
     1
100
AcDbPolyline
 90
        6
 70
     1
 10
-901.234375
 20
-1497.0
 10
-901.234375
 20
-1511.0
 42
0.414214
 10
-900.234375
 20
-1512.0
 10
-847.234375
 20
-1512.0
 42
0.414214
 10
-846.234375
 20
-1511.0
 10
-846.234375
 20
-1497.0
  0
LWPOLYLINE
  5
DE
100
AcDbEntity
  8
LAYER22
370
    25
390
0
  6
Continuous
 62
     2
100
AcDbPolyline
 90
       16
 70
     1
 10
-906.834473
 20
-1510.999878
 10
-903.03418
 20
-1510.999878
 10
-902.879883
 20
-1511.557129
 10
-904.612793
 20
-1512.598389
 10
-904.834473
 20
-1513.009155
 10
-904.458008
 20
-1513.486816
 42
-0.856945
 10
-906.879639
 20
-1529.11145
 10
-906.879639
 20
-1528.61145
 42
1.0
 10
-906.879639
 20
-1513.61145
 42
1.0
 10
-906.879639
 20
-1528.61145
 10
-906.879639
 20
-1529.11145
 42
-0.871902
 10
-909.039063
 20
-1513.408447
 10
-908.833984
 20
-1513.009155
 10
-909.055664
 20
-1512.598389
 10
-910.788818
 20
-1511.557129
 10
-910.634277
 20
-1510.999878
  0
LWPOLYLINE
  5
DF
100
AcDbEntity
  8
LAYER22
370
    25
390
0
  6
Continuous
 62
     2
100
AcDbPolyline
 90
       16
 70
     1
 10
-840.634277
 20
-1510.999878
 10
-844.43457
 20
-1510.999878
 10
-844.588867
 20
-1511.557129
 10
-842.855957
 20
-1512.598389
 10
-842.634277
 20
-1513.009155
 10
-843.010742
 20
-1513.486816
 42
0.856945
 10
-840.589111
 20
-1529.11145
 10
-840.589111
 20
-1528.61145
 42
1.0
 10
-840.589111
 20
-1513.61145
 42
1.0
 10
-840.589111
 20
-1528.61145
 10
-840.589111
 20
-1529.11145
 42
0.871902
 10
-838.429688
 20
-1513.408447
 10
-838.634766
 20
-1513.009155
 10
-838.413086
 20
-1512.598389
 10
-836.679932
 20
-1511.557129
 10
-836.834473
 20
-1510.999878
  0
LWPOLYLINE
  5
E0
100
AcDbEntity
  8
LAYER22
370
    25
390
0
  6
Continuous
 62
     2
100
AcDbPolyline
 90
        4
 70
     1
 10
-844.734375
 20
1068.399902
 10
-832.234375
 20
1068.399902
 10
-832.234375
 20
-1509.5
 10
-844.734375
 20
-1509.5
  0
LWPOLYLINE
  5
E1
100
AcDbEntity
  8
LAYER22
370
    25
390
0
  6
Continuous
 62
     2
100
AcDbPolyline
 90
        4
 70
     1
 10
-902.734375
 20
1068.399902
 10
-915.234375
 20
1068.399902
 10
-915.234375
 20
-1509.5
 10
-902.734375
 20
-1509.5
  0
LWPOLYLINE
  5
E2
100
AcDbEntity
  8
LAYER22
370
    25
390
0
  6
Continuous
 62
     2
100
AcDbPolyline
 90
        4
 70
     1
 10
-948.734375
 20
1241.0
 10
-798.734375
 20
1241.0
 10
-798.734375
 20
1171.0
 10
-948.734375
 20
1171.0
  0
LWPOLYLINE
  5
E3
100
AcDbEntity
  8
LAYER22
370
    25
390
0
  6
Continuous
 62
     2
100
AcDbPolyline
 90
       30
 70
     0
 10
2108.5
 20
-1714.0
 10
2108.5
 20
-1686.5
 10
2122.5
 20
-1686.5
 42
-0.414214
 10
2123.5
 20
-1687.5
 10
2123.5
 20
-1690.75
 42
0.647625
 10
2124.333496
 20
-1691.123169
 42
0.213431
 10
2125.0
 20
-1689.632568
 10
2125.0
 20
-1683.390869
 42
0.744972
 10
2124.098877
 20
-1683.121582
 10
2123.057129
 20
-1684.854492
 10
2122.5
 20
-1684.700195
 10
2122.5
 20
-1677.100098
 10
2123.057129
 20
-1676.945557
 10
2124.078613
 20
-1678.645508
 42
0.776162
 10
2125.000488
 20
-1678.40918
 10
2125.0
 20
-1674.800049
 42
0.414214
 10
2121.0
 20
-1670.800049
 10
2117.615967
 20
-1670.800049
 42
0.217187
 10
2116.110596
 20
-1671.48645
 42
0.629276
 10
2116.499023
 20
-1672.300049
 10
2121.0
 20
-1672.300049
 42
-0.378639
 10
2123.481201
 20
-1674.493408
 42
-0.358301
 10
2122.5
 20
-1675.300049
 42
0.414214
 10
2121.0
 20
-1676.800049
 10
2121.0
 20
-1685.0
 10
2102.0
 20
-1685.0
 10
2102.0
 20
-1686.5
 10
2105.5
 20
-1686.5
 42
-0.414214
 10
2106.5
 20
-1687.5
 10
2106.5
 20
-1714.0
  0
LWPOLYLINE
  5
E4
100
AcDbEntity
  8
LAYER22
370
    25
390
0
  6
Continuous
 62
     2
100
AcDbPolyline
 90
       30
 70
     0
 10
2108.5
 20
-1714.0
 10
2108.5
 20
-1741.5
 10
2122.5
 20
-1741.5
 42
0.414214
 10
2123.5
 20
-1740.5
 10
2123.5
 20
-1737.25
 42
-0.647625
 10
2124.333496
 20
-1736.876831
 42
-0.213431
 10
2125.0
 20
-1738.367432
 10
2125.0
 20
-1744.609131
 42
-0.744972
 10
2124.098877
 20
-1744.878418
 10
2123.057129
 20
-1743.145508
 10
2122.5
 20
-1743.299805
 10
2122.5
 20
-1750.899902
 10
2123.057129
 20
-1751.054443
 10
2124.078613
 20
-1749.354492
 42
-0.776162
 10
2125.000488
 20
-1749.59082
 10
2125.0
 20
-1753.199951
 42
-0.414214
 10
2121.0
 20
-1757.199951
 10
2117.615967
 20
-1757.199951
 42
-0.217187
 10
2116.110596
 20
-1756.51355
 42
-0.629276
 10
2116.499023
 20
-1755.699951
 10
2121.0
 20
-1755.699951
 42
0.378639
 10
2123.481201
 20
-1753.506592
 42
0.358301
 10
2122.5
 20
-1752.699951
 42
-0.414214
 10
2121.0
 20
-1751.199951
 10
2121.0
 20
-1743.0
 10
2102.0
 20
-1743.0
 10
2102.0
 20
-1741.5
 10
2105.5
 20
-1741.5
 42
0.414214
 10
2106.5
 20
-1740.5
 10
2106.5
 20
-1714.0
  0
LWPOLYLINE
  5
E5
100
AcDbEntity
  8
LAYER22
370
    18
390
0
  6
Continuous
 62
     1
100
AcDbPolyline
 90
        6
 70
     1
 10
2108.5
 20
-1741.5
 10
2122.5
 20
-1741.5
 42
0.414214
 10
2123.5
 20
-1740.5
 10
2123.5
 20
-1687.5
 42
0.414214
 10
2122.5
 20
-1686.5
 10
2108.5
 20
-1686.5
  0
LWPOLYLINE
  5
E6
100
AcDbEntity
  8
LAYER22
370
    25
390
0
  6
Continuous
 62
     2
100
AcDbPolyline
 90
        4
 70
     1
 10
1233.0
 20
-1685.0
 10
1233.0
 20
-1672.5
 10
2121.0
 20
-1672.5
 10
2121.0
 20
-1685.0
  0
LWPOLYLINE
  5
E7
100
AcDbEntity
  8
LAYER22
370
    25
390
0
  6
Continuous
 62
     2
100
AcDbPolyline
 90
        4
 70
     1
 10
1233.0
 20
-1743.0
 10
1233.0
 20
-1755.5
 10
2121.0
 20
-1755.5
 10
2121.0
 20
-1743.0
  0
LWPOLYLINE
  5
E8
100
AcDbEntity
  8
LAYER22
370
    25
390
0
  6
Continuous
 62
     2
100
AcDbPolyline
 90
       30
 70
     0
 10
1245.5
 20
-1714.0
 10
1245.5
 20
-1686.5
 10
1231.5
 20
-1686.5
 42
0.414214
 10
1230.5
 20
-1687.5
 10
1230.5
 20
-1690.75
 42
-0.647625
 10
1229.666626
 20
-1691.123169
 42
-0.213431
 10
1229.0
 20
-1689.632568
 10
1229.000122
 20
-1683.390869
 42
-0.744972
 10
1229.901123
 20
-1683.121582
 10
1230.942871
 20
-1684.854492
 10
1231.5
 20
-1684.700195
 10
1231.500122
 20
-1677.100098
 10
1230.942871
 20
-1676.945557
 10
1229.921509
 20
-1678.645508
 42
-0.776162
 10
1228.999634
 20
-1678.40918
 10
1229.0
 20
-1674.800049
 42
-0.414214
 10
1233.0
 20
-1670.800049
 10
1236.384033
 20
-1670.800049
 42
-0.217187
 10
1237.889404
 20
-1671.48645
 42
-0.629276
 10
1237.500977
 20
-1672.300049
 10
1233.0
 20
-1672.300049
 42
0.378639
 10
1230.518921
 20
-1674.493408
 42
0.358301
 10
1231.5
 20
-1675.300049
 42
-0.414214
 10
1233.0
 20
-1676.800049
 10
1233.0
 20
-1685.0
 10
1252.0
 20
-1685.0
 10
1252.0
 20
-1686.5
 10
1248.5
 20
-1686.5
 42
0.414214
 10
1247.5
 20
-1687.5
 10
1247.5
 20
-1714.0
  0
LWPOLYLINE
  5
E9
100
AcDbEntity
  8
LAYER22
370
    25
390
0
  6
Continuous
 62
     2
100
AcDbPolyline
 90
       30
 70
     0
 10
1245.5
 20
-1714.0
 10
1245.5
 20
-1741.5
 10
1231.5
 20
-1741.5
 42
-0.414214
 10
1230.5
 20
-1740.5
 10
1230.5
 20
-1737.25
 42
0.647625
 10
1229.666626
 20
-1736.876831
 42
0.213431
 10
1229.0
 20
-1738.367432
 10
1229.000122
 20
-1744.609131
 42
0.744972
 10
1229.901123
 20
-1744.878418
 10
1230.942871
 20
-1743.145508
 10
1231.5
 20
-1743.299805
 10
1231.500122
 20
-1750.899902
 10
1230.942871
 20
-1751.054443
 10
1229.921509
 20
-1749.354492
 42
0.776162
 10
1228.999634
 20
-1749.59082
 10
1229.0
 20
-1753.199951
 42
0.414214
 10
1233.0
 20
-1757.199951
 10
1236.384033
 20
-1757.199951
 42
0.217187
 10
1237.889404
 20
-1756.51355
 42
0.629276
 10
1237.500977
 20
-1755.699951
 10
1233.0
 20
-1755.699951
 42
-0.378639
 10
1230.518921
 20
-1753.506592
 42
-0.358301
 10
1231.5
 20
-1752.699951
 42
0.414214
 10
1233.0
 20
-1751.199951
 10
1233.0
 20
-1743.0
 10
1252.0
 20
-1743.0
 10
1252.0
 20
-1741.5
 10
1248.5
 20
-1741.5
 42
-0.414214
 10
1247.5
 20
-1740.5
 10
1247.5
 20
-1714.0
  0
LWPOLYLINE
  5
EA
100
AcDbEntity
  8
LAYER22
370
    18
390
0
  6
Continuous
 62
     1
100
AcDbPolyline
 90
        6
 70
     1
 10
1245.5
 20
-1741.5
 10
1231.5
 20
-1741.5
 42
-0.414214
 10
1230.5
 20
-1740.5
 10
1230.5
 20
-1687.5
 42
-0.414214
 10
1231.5
 20
-1686.5
 10
1245.5
 20
-1686.5
  0
LWPOLYLINE
  5
EB
100
AcDbEntity
  8
LAYER22
370
    25
390
0
  6
Continuous
 62
     2
100
AcDbPolyline
 90
       12
 70
     0
 10
1231.5
 20
-1747.099609
 10
1231.5
 20
-1743.299561
 10
1230.943359
 20
-1743.14502
 10
1229.921875
 20
-1744.844727
 42
-0.792023
 10
1229.002319
 20
-1744.589478
 10
1229.0
 20
-1742.349609
 42
1.0
 10
1227.0
 20
-1742.349609
 10
1227.0
 20
-1747.099609
 10
1227.5
 20
-1747.099609
 10
1227.5
 20
-1742.349609
 42
-1.0
 10
1228.5
 20
-1742.349609
 10
1228.5
 20
-1747.099609
  0
LWPOLYLINE
  5
EC
100
AcDbEntity
  8
LAYER22
370
    25
390
0
  6
Continuous
 62
     2
100
AcDbPolyline
 90
       12
 70
     0
 10
1231.5
 20
-1747.099609
 10
1231.5
 20
-1750.899414
 10
1230.943359
 20
-1751.053955
 10
1229.921875
 20
-1749.354004
 42
0.792023
 10
1229.002197
 20
-1749.609497
 10
1229.0
 20
-1751.849609
 42
-1.0
 10
1227.0
 20
-1751.849609
 10
1227.0
 20
-1747.099609
 10
1227.5
 20
-1747.099609
 10
1227.5
 20
-1751.849609
 42
1.0
 10
1228.5
 20
-1751.849609
 10
1228.5
 20
-1747.099609
  0
LWPOLYLINE
  5
ED
100
AcDbEntity
  8
LAYER22
370
    25
390
0
  6
Continuous
 62
     2
100
AcDbPolyline
 90
       12
 70
     0
 10
1231.5
 20
-1680.900391
 10
1231.5
 20
-1677.100342
 10
1230.943359
 20
-1676.945801
 10
1229.921875
 20
-1678.645508
 42
-0.792023
 10
1229.002319
 20
-1678.390259
 10
1229.0
 20
-1676.150391
 42
1.0
 10
1227.0
 20
-1676.150391
 10
1227.0
 20
-1680.900391
 10
1227.5
 20
-1680.900391
 10
1227.5
 20
-1676.150391
 42
-1.0
 10
1228.5
 20
-1676.150391
 10
1228.5
 20
-1680.900391
  0
LWPOLYLINE
  5
EE
100
AcDbEntity
  8
LAYER22
370
    25
390
0
  6
Continuous
 62
     2
100
AcDbPolyline
 90
       12
 70
     0
 10
1231.5
 20
-1680.900391
 10
1231.5
 20
-1684.700195
 10
1230.943359
 20
-1684.854736
 10
1229.921875
 20
-1683.154785
 42
0.792023
 10
1229.002197
 20
-1683.410278
 10
1229.0
 20
-1685.650391
 42
-1.0
 10
1227.0
 20
-1685.650391
 10
1227.0
 20
-1680.900391
 10
1227.5
 20
-1680.900391
 10
1227.5
 20
-1685.650391
 42
1.0
 10
1228.5
 20
-1685.650391
 10
1228.5
 20
-1680.900391
  0
LWPOLYLINE
  5
EF
100
AcDbEntity
  8
LAYER22
370
    25
390
0
  6
Continuous
 62
     2
100
AcDbPolyline
 90
        8
 70
     0
 10
2122.5
 20
-1680.900391
 10
2122.5
 20
-1677.100342
 10
2123.058594
 20
-1676.945801
 10
2124.099609
 20
-1678.678955
 42
0.553069
 10
2124.930664
 20
-1678.661743
 42
-0.744336
 10
2132.246582
 20
-1680.900391
 10
2131.746094
 20
-1680.900391
 42
1.0
 10
2124.746094
 20
-1680.900391
  0
LWPOLYLINE
  5
F0
100
AcDbEntity
  8
LAYER22
370
    25
390
0
  6
Continuous
 62
     2
100
AcDbPolyline
 90
        8
 70
     0
 10
2122.5
 20
-1680.900391
 10
2122.5
 20
-1684.700439
 10
2123.058594
 20
-1684.854736
 10
2124.099609
 20
-1683.121826
 42
-0.553069
 10
2124.930664
 20
-1683.139038
 42
0.744336
 10
2132.246582
 20
-1680.900391
 10
2131.746094
 20
-1680.900391
 42
-1.0
 10
2124.746094
 20
-1680.900391
  0
LWPOLYLINE
  5
F1
100
AcDbEntity
  8
LAYER22
370
    18
390
0
  6
Continuous
 62
     1
100
AcDbPolyline
 90
        4
 70
     1
 10
2027.0
 20
-1755.5
 10
2029.5
 20
-1760.0
 10
2074.5
 20
-1760.0
 10
2077.0
 20
-1755.5
  0
LWPOLYLINE
  5
F2
100
AcDbEntity
  8
LAYER22
370
    18
390
0
  6
Continuous
 62
     1
100
AcDbPolyline
 90
       10
 70
     1
 10
2043.5
 20
-1760.0
 10
2043.5
 20
-1780.0
 42
-0.414214
 10
2028.5
 20
-1795.0
 10
1976.474609
 20
-1795.0
 42
-0.052792
 10
1955.535034
 20
-1792.783081
 42
0.64242
 10
1953.787598
 20
-1801.707642
 42
0.074479
 10
1975.761719
 20
-1804.998901
 10
2055.5
 20
-1805.0
 42
0.414214
 10
2060.5
 20
-1800.0
 10
2060.5
 20
-1760.0
  0
LWPOLYLINE
  5
F3
100
AcDbEntity
  8
LAYER22
370
    18
390
0
  6
Continuous
 62
     1
100
AcDbPolyline
 90
        4
 70
     1
 10
2027.0
 20
-1672.5
 10
2029.5
 20
-1668.0
 10
2074.5
 20
-1668.0
 10
2077.0
 20
-1672.5
  0
LWPOLYLINE
  5
F4
100
AcDbEntity
  8
LAYER22
370
    18
390
0
  6
Continuous
 62
     1
100
AcDbPolyline
 90
       10
 70
     1
 10
2043.5
 20
-1668.0
 10
2043.5
 20
-1648.0
 42
0.414214
 10
2028.5
 20
-1633.0
 10
1976.474609
 20
-1633.0
 42
0.052792
 10
1955.535034
 20
-1635.216919
 42
-0.64242
 10
1953.787598
 20
-1626.292358
 42
-0.074479
 10
1975.761719
 20
-1623.001099
 10
2055.5
 20
-1623.0
 42
-0.414214
 10
2060.5
 20
-1628.0
 10
2060.5
 20
-1668.0
  0
MTEXT
  5
F5
100
AcDbEntity
  8
LAYER22
390
0
 62
     4
100
AcDbMText
 10
-2018.0
 20
-407.0
 30
0.0
 40
22.5
 41
0.0
 71
     7
 72
     1
  1
(hangend met vloerrail)
 11
0.0
 21
1.0
 31
0.0
 73
     1
 44
1.333333
  0
MTEXT
  5
F6
100
AcDbEntity
  8
LAYER01
390
0
 62
     2
100
AcDbMText
 10
-1559.0
 20
1230.0
 30
0.0
 40
11.25
 41
0.0
 71
     7
 72
     1
  1
FLEXIO 85S
 11
1.0
 21
0.0
 31
0.0
 73
     1
 44
1.333333
  0
MTEXT
  5
F7
100
AcDbEntity
  8
LAYER22
390
0
 62
     4
100
AcDbMText
 10
-1474.0
 20
-403.0
 30
0.0
 40
22.5
 41
0.0
 71
     7
 72
     1
  1
(staand met vloerrail)
 11
0.0
 21
1.0
 31
0.0
 73
     1
 44
1.333333
  0
MTEXT
  5
F8
100
AcDbEntity
  8
LAYER01
390
0
 62
     2
100
AcDbMText
 10
-1051.0
 20
1262.0
 30
0.0
 40
11.25
 41
0.0
 71
     7
 72
     1
  1
FLEXIO 85H
 11
1.0
 21
0.0
 31
0.0
 73
     1
 44
1.333333
  0
MTEXT
  5
F9
100
AcDbEntity
  8
LAYER22
390
0
 62
     4
100
AcDbMText
 10
-962.0
 20
-404.0
 30
0.0
 40
22.5
 41
0.0
 71
     7
 72
     1
  1
(hangend zonder vloerrail)
 11
0.0
 21
1.0
 31
0.0
 73
     1
 44
1.333333
  0
MTEXT
  5
FA
100
AcDbEntity
  8
LAYER22
390
0
 62
     2
100
AcDbMText
 10
61.0
 20
-1654.0
 30
0.0
 40
11.25
 41
0.0
 71
     7
 72
     1
  1
maximaal
 11
1.0
 21
0.0
 31
0.0
 73
     1
 44
1.333333
  0
MTEXT
  5
FB
100
AcDbEntity
  8
LAYER22
390
0
 62
     2
100
AcDbMText
 10
812.0
 20
-1654.0
 30
0.0
 40
11.25
 41
0.0
 71
     7
 72
     1
  1
maximaal
 11
1.0
 21
0.0
 31
0.0
 73
     1
 44
1.333333
  0
MTEXT
  5
FC
100
AcDbEntity
  8
LAYER22
390
0
 62
     2
100
AcDbMText
 10
1636.0
 20
-1654.0
 30
0.0
 40
11.25
 41
0.0
 71
     7
 72
     1
  1
maximaal
 11
1.0
 21
0.0
 31
0.0
 73
     1
 44
1.333333
  0
LWPOLYLINE
  5
FD
100
AcDbEntity
  8
LAYER22
370
    18
390
0
  6
Continuous
 62
     1
100
AcDbPolyline
 90
       14
 70
     1
 10
2027.0
 20
-512.5
 10
2027.0
 20
-471.0
 42
-0.414214
 10
2032.0
 20
-466.0
 10
2072.0
 20
-466.0
 42
-0.414214
 10
2077.0
 20
-471.0
 10
2077.0
 20
-641.0
 42
-0.414214
 10
2072.0
 20
-646.0
 10
2032.0
 20
-646.0
 42
-0.414214
 10
2027.0
 20
-641.0
 10
2027.0
 20
-529.5
 10
2055.5
 20
-529.5
 42
0.414213
 10
2060.5
 20
-524.5
 10
2060.5
 20
-517.5
 42
0.414214
 10
2055.5
 20
-512.5
  0
LWPOLYLINE
  5
FE
100
AcDbEntity
  8
LAYER22
370
    18
390
0
  6
Continuous
 62
     1
100
AcDbPolyline
 90
        8
 70
     1
 10
2055.5
 20
-512.5
 42
-0.414214
 10
2060.5
 20
-517.5
 10
2060.5
 20
-524.5
 42
-0.414214
 10
2055.5
 20
-529.5
 10
1956.701172
 20
-529.5
 42
-0.414214
 10
1951.701172
 20
-524.5
 10
1951.701172
 20
-517.5
 42
-0.414213
 10
1956.701172
 20
-512.5
  0
ENDSEC
  0
SECTION
  2
OBJECTS
  0
DICTIONARY
  5
19
100
AcDbDictionary
280
     0
281
     1
  3
ACAD_GROUP
350
1A
  3
ACAD_MLINESTYLE
350
1B
  3
ACAD_LAYOUT
350
1E
  3
ACAD_PLOTSETTINGS
350
22
  3
ACAD_PLOTSTYLENAME
350
1F
  3
ACAD_WIPEOUT_VARS
350
23
  0
DICTIONARY
  5
1A
102
{ACAD_REACTORS
330
19
102
}
100
AcDbDictionary
280
     0
281
     1
  0
DICTIONARY
  5
1B
102
{ACAD_REACTORS
330
19
102
}
100
AcDbDictionary
280
     0
281
     1
  3
Standard
350
1C
  0
MLINESTYLE
  5
1C
102
{ACAD_REACTORS
330
1B
102
}
100
AcDbMlineStyle
  2
Standard
 70
     0
  3

 62
     0
 51
90.0
 52
90.0
 71
     2
 49
0.5
 62
   256
  6
ByLayer
 49
-0.5
 62
   256
  6
ByLayer
  0
ACDBDICTIONARYWDFLT
  5
1F
102
{ACAD_REACTORS
330
19
102
}
100
AcDbDictionary
281
     1
  3
Normal
350
1D
100
AcDbDictionaryWithDefault
340
1D
  0
ACDBPLACEHOLDER
  5
1D
102
{ACAD_REACTORS
330
1F
102
}
  0
LAYOUT
  5
20
102
{ACAD_REACTORS
330
1E
102
}
100
AcDbPlotSettings
  1

  2

  4

  6

 40
0.0
 41
0.0
 42
0.0
 43
0.0
 44
0.0
 45
0.0
 46
0.0
 47
0.0
 48
0.0
 49
0.0
140
0.0
141
0.0
142
1.0
143
1.0
 70
  1024
 72
     0
 73
     0
 74
     0
  7

 75
     0
147
1.0
148
0.0
149
0.0
100
AcDbLayout
  1
Model
 70
     0
 71
     0
 10
0.0
 20
0.0
 11
0.0
 21
0.0
 12
0.0
 22
0.0
 32
0.0
 14
0.0
 24
0.0
 34
0.0
 15
0.0
 25
0.0
 35
0.0
146
0.0
 13
0.0
 23
0.0
 33
0.0
 16
0.0
 26
0.0
 36
0.0
 17
0.0
 27
0.0
 37
0.0
 76
     0
330
A
331
0
345
0
346
0
  0
LAYOUT
  5
21
102
{ACAD_REACTORS
330
1E
102
}
100
AcDbPlotSettings
  1

  2

  4

  6

 40
0.0
 41
0.0
 42
0.0
 43
0.0
 44
0.0
 45
0.0
 46
0.0
 47
0.0
 48
0.0
 49
0.0
140
0.0
141
0.0
142
1.0
143
1.0
 70
     0
 72
     0
 73
     0
 74
     0
  7

 75
     0
147
1.0
148
0.0
149
0.0
100
AcDbLayout
  1
Layout1
 70
     0
 71
     0
 10
0.0
 20
0.0
 11
0.0
 21
0.0
 12
0.0
 22
0.0
 32
0.0
 14
0.0
 24
0.0
 34
0.0
 15
0.0
 25
0.0
 35
0.0
146
0.0
 13
0.0
 23
0.0
 33
0.0
 16
0.0
 26
0.0
 36
0.0
 17
0.0
 27
0.0
 37
0.0
 76
     0
330
B
331
0
345
0
346
0
  0
DICTIONARY
  5
1E
102
{ACAD_REACTORS
330
19
102
}
100
AcDbDictionary
280
     0
281
     1
  3
Layout1
350
21
  3
Model
350
20
  0
DICTIONARY
  5
22
102
{ACAD_REACTORS
330
19
102
}
100
AcDbDictionary
280
     0
281
     1
  0
WIPEOUTVARIABLES
  5
23
100
AcDbWipeoutVariables
 70
     1
  0
ENDSEC
  0
EOF
